  0
SECTION
  2
HEADER
  9
$ACADVER
  1
AC1012
  9
$DWGCODEPAGE
  3
dos850
  9
$INSBASE
 10
0.0
 20
0.0
 30
0.0
  9
$EXTMIN
 10
5.543914729748
 20
21.408647358999
 30
0.0
  9
$EXTMAX
 10
267.061850304548
 20
182.823948996787
 30
0.0
  9
$LIMMIN
 10
5.543914729748
 20
21.408647358999
  9
$LIMMAX
 10
267.061850304548
 20
182.823948996787
  9
$ORTHOMODE
 70
           0
  9
$REGENMODE
 70
           1
  9
$FILLMODE
 70
           1
  9
$QTEXTMODE
 70
           0
  9
$MIRRTEXT
 70
           1
  9
$DRAGMODE
 70
           2
  9
$LTSCALE
 40
5.0
  9
$OSMODE
 70
           0
  9
$ATTMODE
 70
           1
  9
$TEXTSIZE
 40
0.2
  9
$TRACEWID
 40
0.05
  9
$TEXTSTYLE
  7
TXT
  9
$CLAYER
  8
0
  9
$CELTYPE
  6
CONTINUOUS
  9
$CECOLOR
 62
         256
  9
$CELTSCALE
 40
1.0
  9
$DELOBJ
 70
           1
  9
$DISPSILH
 70
           0
  9
$DIMSCALE
 40
1.0
  9
$DIMASZ
 40
3.5
  9
$DIMEXO
 40
0.0625
  9
$DIMDLI
 40
0.38
  9
$DIMRND
 40
0.0
  9
$DIMDLE
 40
0.0
  9
$DIMEXE
 40
0.18
  9
$DIMTP
 40
0.0
  9
$DIMTM
 40
0.0
  9
$DIMTXT
 40
3.5
  9
$DIMCEN
 40
0.09
  9
$DIMTSZ
 40
0.0
  9
$DIMTOL
 70
           0
  9
$DIMLIM
 70
           0
  9
$DIMTIH
 70
           1
  9
$DIMTOH
 70
           1
  9
$DIMSE1
 70
           0
  9
$DIMSE2
 70
           0
  9
$DIMTAD
 70
           0
  9
$DIMZIN
 70
           0
  9
$DIMBLK
  1

  9
$DIMASO
 70
           1
  9
$DIMSHO
 70
           1
  9
$DIMPOST
  1

  9
$DIMAPOST
  1

  9
$DIMALT
 70
           0
  9
$DIMALTD
 70
           2
  9
$DIMALTF
 40
25.4
  9
$DIMLFAC
 40
1.0
  9
$DIMTOFL
 70
           0
  9
$DIMTVP
 40
0.0
  9
$DIMTIX
 70
           0
  9
$DIMSOXD
 70
           0
  9
$DIMSAH
 70
           0
  9
$DIMBLK1
  1

  9
$DIMBLK2
  1

  9
$DIMSTYLE
  2
STANDARD
  9
$DIMCLRD
 70
           0
  9
$DIMCLRE
 70
           0
  9
$DIMCLRT
 70
           0
  9
$DIMTFAC
 40
1.0
  9
$DIMGAP
 40
0.09
  9
$DIMJUST
 70
           0
  9
$DIMSD1
 70
           0
  9
$DIMSD2
 70
           0
  9
$DIMTOLJ
 70
           1
  9
$DIMTZIN
 70
           0
  9
$DIMALTZ
 70
           0
  9
$DIMALTTZ
 70
           0
  9
$DIMFIT
 70
           3
  9
$DIMUPT
 70
           0
  9
$DIMUNIT
 70
           2
  9
$DIMDEC
 70
           4
  9
$DIMTDEC
 70
           4
  9
$DIMALTU
 70
           2
  9
$DIMALTTD
 70
           2
  9
$DIMTXSTY
  7
TXT
  9
$DIMAUNIT
 70
           0
  9
$LUNITS
 70
           2
  9
$LUPREC
 70
           2
  9
$SKETCHINC
 40
0.1
  9
$FILLETRAD
 40
0.0
  9
$AUNITS
 70
           0
  9
$AUPREC
 70
           2
  9
$MENU
  1
acad
  9
$ELEVATION
 40
0.0
  9
$PELEVATION
 40
0.0
  9
$THICKNESS
 40
0.0
  9
$LIMCHECK
 70
           0
  9
$BLIPMODE
 70
           1
  9
$CHAMFERA
 40
0.0
  9
$CHAMFERB
 40
0.0
  9
$CHAMFERC
 40
0.0
  9
$CHAMFERD
 40
0.0
  9
$SKPOLY
 70
           0
  9
$TDCREATE
 40
0.000000000
  9
$TDUPDATE
 40
0.000000000
  9
$TDINDWG
 40
0.0000000000
  9
$TDUSRTIMER
 40
0.0000000000
  9
$USRTIMER
 70
           1
  9
$ANGBASE
 50
0.0
  9
$ANGDIR
 70
           0
  9
$PDMODE
 70
           2
  9
$PDSIZE
 40
0.5
  9
$PLINEWID
 40
0.0
  9
$COORDS
 70
           0
  9
$SPLFRAME
 70
           0
  9
$SPLINETYPE
 70
           6
  9
$SPLINESEGS
 70
           8
  9
$ATTDIA
 70
           0
  9
$ATTREQ
 70
           1
  9
$HANDLING
 70
           1
  9
$HANDSEED
  5
3E6
  9
$SURFTAB1
 70
           6
  9
$SURFTAB2
 70
           6
  9
$SURFTYPE
 70
           6
  9
$SURFU
 70
           6
  9
$SURFV
 70
           6
  9
$UCSNAME
  2

  9
$UCSORG
 10
0.0
 20
0.0
 30
0.0
  9
$UCSXDIR
 10
1.0
 20
0.0
 30
0.0
  9
$UCSYDIR
 10
0.0
 20
1.0
 30
0.0
  9
$PUCSNAME
  2

  9
$PUCSORG
 10
0.0
 20
0.0
 30
0.0
  9
$PUCSXDIR
 10
1.0
 20
0.0
 30
0.0
  9
$PUCSYDIR
 10
0.0
 20
1.0
 30
0.0
  9
$USERI1
 70
           0
  9
$USERI2
 70
           0
  9
$USERI3
 70
           0
  9
$USERI4
 70
           0
  9
$USERI5
 70
           0
  9
$USERR1
 40
0.0
  9
$USERR2
 40
0.0
  9
$USERR3
 40
0.0
  9
$USERR4
 40
0.0
  9
$USERR5
 40
0.0
  9
$WORLDVIEW
 70
           1
  9
$SHADEDGE
 70
           3
  9
$SHADEDIF
 70
          70
  9
$TILEMODE
 70
           1
  9
$MAXACTVP
 70
          16
  9
$PINSBASE
 10
0.0
 20
0.0
 30
0.0
  9
$PLIMCHECK
 70
           0
  9
$PEXTMIN
 10
1.000000000000E+20
 20
1.000000000000E+20
 30
1.000000000000E+20
  9
$PEXTMAX
 10
-1.000000000000E+20
 20
-1.000000000000E+20
 30
-1.000000000000E+20
  9
$PLIMMIN
 10
0.0
 20
0.0
  9
$PLIMMAX
 10
12.0
 20
9.0
  9
$UNITMODE
 70
           0
  9
$VISRETAIN
 70
           0
  9
$PLINEGEN
 70
           1
  9
$PSLTSCALE
 70
           0
  9
$TREEDEPTH
 70
        3020
  9
$PICKSTYLE
 70
           1
  9
$CMLSTYLE
  2
STANDARD
  9
$CMLJUST
 70
           0
  9
$CMLSCALE
 40
1.0
  9
$SAVEIMAGES
 70
           0
  0
ENDSEC
  0
SECTION
  2
CLASSES
  0
CLASS
  1
LWPOLYLINE
  2
AcDbPolyline
  3
"AutoCAD"
 90
        0
280
           0
281
           1
  0
CLASS
  1
IMAGE
  2
AcDbRasterImage
  3
ISM
 90
      127
280
           0
281
           1
  0
CLASS
  1
OLE2FRAME
  2
AcDbOle2Frame
  3
""
 90
        0
280
           0
281
           1
  0
CLASS
  1
HATCH
  2
AcDbHatch
  3
"ACAD_SEDONA"
 90
        0
280
           0
281
           1
  0
CLASS
  1
DICTIONARYVAR
  2
AcDbDictionaryVar
  3
"AutoCAD"
 90
        0
280
           0
281
           0
  0
CLASS
  1
RASTERVARIABLES
  2
AcDbRasterVariables
  3
ISM
 90
        0
280
           0
281
           0
  0
CLASS
  1
IMAGEDEF
  2
AcDbRasterImageDef
  3
ISM
 90
        0
280
           0
281
           0
  0
CLASS
  1
IMAGEDEF_REACTOR
  2
AcDbRasterImageDefReactor
  3
ISM
 90
        1
280
           0
281
           0
  0
CLASS
  1
IDBUFFER
  2
AcDbIdBuffer
  3
"Acad"
 90
        0
280
           0
281
           0
  0
CLASS
  1
SPATIAL_FILTER
  2
AcDbSpatialFilter
  3
"Acad"
 90
        0
280
           0
281
           0
  0
CLASS
  1
XRECORD
  2
AcDbXrecord
  3
"<Built In>"
 90
        0
280
           0
281
           0
  0
ENDSEC
  0
SECTION
  2
TABLES
  0
TABLE
  2
VPORT
  5
7
100
AcDbSymbolTable
 70
           1
  0
VPORT
  5
15
100
AcDbSymbolTableRecord
100
AcDbViewportTableRecord
  2
*ACTIVE
 70
           0
 10
0.0
 20
0.0
 11
1.0
 21
1.0
 12
6.591288
 22
4.579184
 13
0.0
 23
0.0
 14
1.0
 24
1.0
 15
0.0
 25
0.0
 16
0.0
 26
0.0
 36
1.0
 17
0.0
 27
0.0
 37
0.0
 40
9.158369
 41
0.688564
 42
50.0
 43
0.0
 44
0.0
 50
0.0
 51
0.0
 71
           0
 72
         100
 73
           1
 74
           1
 75
           0
 76
           0
 77
           0
 78
           0
  0
ENDTAB
  0
TABLE
  2
LTYPE
  5
4
100
AcDbSymbolTable
 70
           3
  0
LTYPE
  5
11
100
AcDbSymbolTableRecord
100
AcDbLinetypeTableRecord
  2
BYBLOCK
 70
           0
  3

 72
          65
 73
           0
 40
0.0
  0
LTYPE
  5
12
100
AcDbSymbolTableRecord
100
AcDbLinetypeTableRecord
  2
BYLAYER
 70
           0
  3

 72
          65
 73
           0
 40
0.0
  0
LTYPE
  5
13
100
AcDbSymbolTableRecord
100
AcDbLinetypeTableRecord
  2
CONTINUOUS
 70
           0
  3
Solid line
 72
          65
 73
           0
 40
0.0
  0
ENDTAB
  0
TABLE
  2
LAYER
  5
2
100
AcDbSymbolTable
 70
           1
  0
LAYER
  5
14
100
AcDbSymbolTableRecord
100
AcDbLayerTableRecord
  2
0
 70
           0
 62
           7
  6
CONTINUOUS
  0
ENDTAB
  0
TABLE
  2
STYLE
  5
3
100
AcDbSymbolTable
 70
           3
  0
STYLE
  5
17
100
AcDbSymbolTableRecord
100
AcDbTextStyleTableRecord
  2
TXT
 70
           0
 40
3.5
 41
1.0
 50
0.0
 71
           0
 42
3.5
  3
TXT
  4

  0
STYLE
  5
1D
100
AcDbSymbolTableRecord
100
AcDbTextStyleTableRecord
  2
ROMAND
 70
           0
 40
3.5
 41
1.0
 50
0.0
 71
           0
 42
3.5
  3
ROMAND
  4

  0
STYLE
  5
1E
100
AcDbSymbolTableRecord
100
AcDbTextStyleTableRecord
  2
GOTHICG
 70
           0
 40
3.5
 41
1.0
 50
0.0
 71
           0
 42
3.5
  3
GOTHICG
  4

  0
ENDTAB
  0
TABLE
  2
VIEW
  5
5
100
AcDbSymbolTable
 70
           0
  0
ENDTAB
  0
TABLE
  2
UCS
  5
6
100
AcDbSymbolTable
 70
           0
  0
ENDTAB
  0
TABLE
  2
APPID
  5
8
100
AcDbSymbolTable
 70
           2
  0
APPID
  5
16
100
AcDbSymbolTableRecord
100
AcDbRegAppTableRecord
  2
ACAD
 70
           0
  0
APPID
  5
1F
100
AcDbSymbolTableRecord
100
AcDbRegAppTableRecord
  2
MegaCADPntStyle
 70
           0
  0
ENDTAB
  0
TABLE
  2
DIMSTYLE
  5
9
100
AcDbSymbolTable
 70
           1
  0
DIMSTYLE
105
18
100
AcDbSymbolTableRecord
100
AcDbDimStyleTableRecord
  2
STANDARD
 70
           0
  3

  4

  5

  6

  7

 40
1.0
 41
0.18
 42
0.0625
 43
0.38
 44
0.18
 45
0.0
 46
0.0
 47
0.0
 48
0.0
140
0.18
141
0.09
142
0.0
143
25.4
144
1.0
145
0.0
146
1.0
147
0.09
 71
           0
 72
           0
 73
           1
 74
           1
 75
           0
 76
           0
 77
           0
 78
           0
170
           0
171
           2
172
           0
173
           0
174
           0
175
           0
176
           0
177
           0
178
           0
270
           2
271
           4
272
           4
273
           2
274
           2
340
17
275
           0
280
           0
281
           0
282
           0
283
           1
284
           0
285
           0
286
           0
287
           0
288
           0
  0
ENDTAB
  0
TABLE
  2
BLOCK_RECORD
  5
1
100
AcDbSymbolTable
 70
           7
  0
BLOCK_RECORD
  5
A
100
AcDbSymbolTableRecord
100
AcDbBlockTableRecord
  2
*MODEL_SPACE
  0
BLOCK_RECORD
  5
B
100
AcDbSymbolTableRecord
100
AcDbBlockTableRecord
  2
*PAPER_SPACE
  0
BLOCK_RECORD
  5
20
102
{ACAD_XDICTIONARY
360
9C4416
102
}
100
AcDbSymbolTableRecord
100
AcDbBlockTableRecord
  2
ELIPPSE
  0
BLOCK_RECORD
  5
21
102
{ACAD_XDICTIONARY
360
9C4416
102
}
100
AcDbSymbolTableRecord
100
AcDbBlockTableRecord
  2
SUPPLY_1
  0
BLOCK_RECORD
  5
22
102
{ACAD_XDICTIONARY
360
9C4416
102
}
100
AcDbSymbolTableRecord
100
AcDbBlockTableRecord
  2
SDXPSA_2
  0
BLOCK_RECORD
  5
23
102
{ACAD_XDICTIONARY
360
9C4416
102
}
100
AcDbSymbolTableRecord
100
AcDbBlockTableRecord
  2
SDXPIC1_3
  0
BLOCK_RECORD
  5
24
102
{ACAD_XDICTIONARY
360
9C4416
102
}
100
AcDbSymbolTableRecord
100
AcDbBlockTableRecord
  2
SUPPLY_4
  0
BLOCK_RECORD
  5
25
102
{ACAD_XDICTIONARY
360
9C4416
102
}
100
AcDbSymbolTableRecord
100
AcDbBlockTableRecord
  2
SDXPSA_5
  0
BLOCK_RECORD
  5
26
102
{ACAD_XDICTIONARY
360
9C4416
102
}
100
AcDbSymbolTableRecord
100
AcDbBlockTableRecord
  2
SDXPIC1_6
  0
ENDTAB
  0
ENDSEC
  0
SECTION
  2
BLOCKS
  0
BLOCK
  5
D
100
AcDbEntity
  8
0
100
AcDbBlockBegin
  2
*MODEL_SPACE
 70
           0
 10
0.0
 20
0.0
 30
0.0
  3
*MODEL_SPACE
  1

  0
ENDBLK
  5
E
100
AcDbEntity
  8
0
100
AcDbBlockEnd
  0
BLOCK
  5
F
100
AcDbEntity
 67
           1
  8
0
100
AcDbBlockBegin
  2
*PAPER_SPACE
 70
           0
 10
0.0
 20
0.0
 30
0.0
  3
*PAPER_SPACE
  1

  0
ENDBLK
  5
10
100
AcDbEntity
 67
           1
  8
0
100
AcDbBlockEnd
  0
BLOCK
  5
6A
100
AcDbEntity
  8
0
100
AcDbBlockBegin
  2
ELIPPSE
 70
          64
 10
0.0
 20
0.0
 30
0.0
  3
ELIPPSE
  1

  0
CIRCLE
  5
6B
100
AcDbEntity
  8
0
  6
BYBLOCK
 62
           0
100
AcDbCircle
 10
0.0
 20
0.0
 30
0.0
 40
1.0
  0
ENDBLK
  5
6C
100
AcDbEntity
  8
0
  6
BYBLOCK
 62
           0
100
AcDbBlockEnd
  0
BLOCK
  5
6D
100
AcDbEntity
  8
0
100
AcDbBlockBegin
  2
SUPPLY_1
 70
          64
 10
0.0
 20
0.0
 30
0.0
  3
SUPPLY_1
  1

  0
TEXT
  5
6E
100
AcDbEntity
  8
0
  6
CONTINUOUS
 62
          15
100
AcDbText
 10
-0.702117919922
 20
-17.995021052659
 30
0.0
 40
1.0
  1
FUSED AT 3 AMPS
 41
1.000000014901
  7
GOTHICG
100
AcDbText
  0
TEXT
  5
6F
100
AcDbEntity
  8
0
  6
CONTINUOUS
 62
          15
100
AcDbText
 10
-0.342361450195
 20
-15.835620112717
 30
0.0
 40
1.0
  1
240 Vac SUPPLY
 41
1.000000014901
  7
GOTHICG
100
AcDbText
  0
TEXT
  5
70
100
AcDbEntity
  8
0
  6
CONTINUOUS
 62
          15
100
AcDbText
 10
15.666519165039
 20
-12.416567988694
 30
0.0
 40
1.0
  1
LIVE
 41
1.000000014901
  7
GOTHICG
100
AcDbText
  0
TEXT
  5
71
100
AcDbEntity
  8
0
  6
CONTINUOUS
 62
          15
100
AcDbText
 10
15.846389770508
 20
-9.89726562053
 30
0.0
 40
1.0
  1
EARTH
 41
1.000000014901
  7
GOTHICG
100
AcDbText
  0
TEXT
  5
72
100
AcDbEntity
  8
0
  6
CONTINUOUS
 62
          15
100
AcDbText
 10
15.666519165039
 20
-7.737864680588
 30
0.0
 40
1.0
  1
NEUTRAL
 41
1.000000014901
  7
GOTHICG
100
AcDbText
  0
LINE
  5
73
100
AcDbEntity
  8
0
  6
CONTINUOUS
 62
          15
100
AcDbLine
 10
2.304016113281
 20
-7.19800567627
 30
0.0
 11
13.730758666992
 21
-7.19800567627
 31
0.0
  0
LINE
  5
74
100
AcDbEntity
  8
0
  6
CONTINUOUS
 62
          15
100
AcDbLine
 10
0.0
 20
-9.53736114502
 30
0.0
 11
13.730758666992
 21
-9.53736114502
 31
0.0
  0
LINE
  5
75
100
AcDbEntity
  8
0
  6
CONTINUOUS
 62
          15
100
AcDbLine
 10
-2.303955078125
 20
-11.87671661377
 30
0.0
 11
13.730758666992
 21
-11.87671661377
 31
0.0
  0
LINE
  5
76
100
AcDbEntity
  8
0
  6
CONTINUOUS
 62
          15
100
AcDbLine
 10
2.304016113281
 20
0.0
 30
0.0
 11
2.304016113281
 21
7.085510253906
 31
0.0
  0
LINE
  5
77
100
AcDbEntity
  8
0
  6
CONTINUOUS
 62
          15
100
AcDbLine
 10
2.304016113281
 20
-7.19800567627
 30
0.0
 11
2.304016113281
 21
0.0
 31
0.0
  0
LINE
  5
78
100
AcDbEntity
  8
0
  6
CONTINUOUS
 62
          15
100
AcDbLine
 10
0.0
 20
0.0
 30
0.0
 11
0.0
 21
7.085510253906
 31
0.0
  0
LINE
  5
79
100
AcDbEntity
  8
0
  6
CONTINUOUS
 62
          15
100
AcDbLine
 10
0.0
 20
-9.53736114502
 30
0.0
 11
0.0
 21
0.0
 31
0.0
  0
LINE
  5
7A
100
AcDbEntity
  8
0
  6
CONTINUOUS
 62
          15
100
AcDbLine
 10
-2.303955078125
 20
0.0
 30
0.0
 11
-2.303955078125
 21
7.085510253906
 31
0.0
  0
LINE
  5
7B
100
AcDbEntity
  8
0
  6
CONTINUOUS
 62
          15
100
AcDbLine
 10
-2.303955078125
 20
-11.87671661377
 30
0.0
 11
-2.303955078125
 21
0.0
 31
0.0
  0
ENDBLK
  5
7C
100
AcDbEntity
  8
0
  6
BYBLOCK
 62
           0
100
AcDbBlockEnd
  0
BLOCK
  5
7D
100
AcDbEntity
  8
0
100
AcDbBlockBegin
  2
SDXPSA_2
 70
          64
 10
0.0
 20
0.0
 30
0.0
  3
SDXPSA_2
  1

  0
LINE
  5
7E
100
AcDbEntity
  8
0
  6
CONTINUOUS
 62
          15
100
AcDbLine
 10
-40.891185760498
 20
-42.928718566895
 30
0.0
 11
-40.891185760498
 21
-27.459526062012
 31
0.0
  0
LINE
  5
7F
100
AcDbEntity
  8
0
  6
CONTINUOUS
 62
          15
100
AcDbLine
 10
17.528816223145
 20
-25.07674407959
 30
0.0
 11
17.528816223145
 21
-42.928718566895
 31
0.0
  0
LINE
  5
80
100
AcDbEntity
  8
0
  6
CONTINUOUS
 62
          15
100
AcDbLine
 10
17.528816223145
 20
-42.928718566895
 30
0.0
 11
-40.891185760498
 21
-42.928718566895
 31
0.0
  0
LINE
  5
81
100
AcDbEntity
  8
0
  6
CONTINUOUS
 62
          15
100
AcDbLine
 10
-1.013191223145
 20
-19.941719055176
 30
0.0
 11
-1.013191223145
 21
-25.02172088623
 31
0.0
  0
LINE
  5
82
100
AcDbEntity
  8
0
  6
CONTINUOUS
 62
          15
100
AcDbLine
 10
-1.013191223145
 20
-19.941719055176
 30
0.0
 11
-3.553184509277
 21
-19.941719055176
 31
0.0
  0
LINE
  5
83
100
AcDbEntity
  8
0
  6
CONTINUOUS
 62
          15
100
AcDbLine
 10
-3.553184509277
 20
-25.02172088623
 30
0.0
 11
-3.553184509277
 21
-19.941719055176
 31
0.0
  0
LINE
  5
84
100
AcDbEntity
  8
0
  6
CONTINUOUS
 62
          15
100
AcDbLine
 10
-3.553184509277
 20
-25.02172088623
 30
0.0
 11
-1.013191223145
 21
-25.02172088623
 31
0.0
  0
LINE
  5
85
100
AcDbEntity
  8
0
  6
CONTINUOUS
 62
          15
100
AcDbLine
 10
-1.013191223145
 20
-21.211723327637
 30
0.0
 11
-3.553184509277
 21
-21.211723327637
 31
0.0
  0
LINE
  5
86
100
AcDbEntity
  8
0
  6
CONTINUOUS
 62
          15
100
AcDbLine
 10
13.33780670166
 20
-23.497718811035
 30
0.0
 11
5.717811584473
 21
-23.497718811035
 31
0.0
  0
LINE
  5
87
100
AcDbEntity
  8
0
  6
CONTINUOUS
 62
          15
100
AcDbLine
 10
13.33780670166
 20
-23.497718811035
 30
0.0
 11
13.33780670166
 21
-29.593719482422
 31
0.0
  0
LINE
  5
88
100
AcDbEntity
  8
0
  6
CONTINUOUS
 62
          15
100
AcDbLine
 10
5.717811584473
 20
-29.593719482422
 30
0.0
 11
13.33780670166
 21
-29.593719482422
 31
0.0
  0
LINE
  5
89
100
AcDbEntity
  8
0
  6
CONTINUOUS
 62
          15
100
AcDbLine
 10
5.717811584473
 20
-29.593719482422
 30
0.0
 11
5.717811584473
 21
-23.497718811035
 31
0.0
  0
LINE
  5
8A
100
AcDbEntity
  8
0
  6
CONTINUOUS
 62
          15
100
AcDbLine
 10
-11.528785705566
 20
-26.418716430664
 30
0.0
 11
-11.528785705566
 21
-23.878723144531
 31
0.0
  0
LINE
  5
8B
100
AcDbEntity
  8
0
  6
CONTINUOUS
 62
          15
100
AcDbLine
 10
-11.528785705566
 20
-26.418716430664
 30
0.0
 11
-12.798789978027
 21
-26.418716430664
 31
0.0
  0
LINE
  5
8C
100
AcDbEntity
  8
0
  6
CONTINUOUS
 62
          15
100
AcDbLine
 10
-12.798789978027
 20
-23.878723144531
 30
0.0
 11
-12.798789978027
 21
-26.418716430664
 31
0.0
  0
LINE
  5
8D
100
AcDbEntity
  8
0
  6
CONTINUOUS
 62
          15
100
AcDbLine
 10
-12.798789978027
 20
-23.878723144531
 30
0.0
 11
-11.528785705566
 21
-23.878723144531
 31
0.0
  0
LINE
  5
8E
100
AcDbEntity
  8
0
  6
CONTINUOUS
 62
          15
100
AcDbLine
 10
-12.163787841797
 20
-23.878723144531
 30
0.0
 11
-12.163787841797
 21
-23.561218261719
 31
0.0
  0
LINE
  5
8F
100
AcDbEntity
  8
0
  6
CONTINUOUS
 62
          15
100
AcDbLine
 10
-12.163787841797
 20
-23.878723144531
 30
0.0
 11
-12.163787841797
 21
-23.878723144531
 31
0.0
  0
LINE
  5
90
100
AcDbEntity
  8
0
  6
CONTINUOUS
 62
          15
100
AcDbLine
 10
-12.163787841797
 20
-23.561218261719
 30
0.0
 11
-12.163787841797
 21
-23.878723144531
 31
0.0
  0
LINE
  5
91
100
AcDbEntity
  8
0
  6
CONTINUOUS
 62
          15
100
AcDbLine
 10
-12.163787841797
 20
-23.561218261719
 30
0.0
 11
-12.163787841797
 21
-23.561218261719
 31
0.0
  0
LINE
  5
92
100
AcDbEntity
  8
0
  6
CONTINUOUS
 62
          15
100
AcDbLine
 10
-12.163787841797
 20
-26.736221313477
 30
0.0
 11
-12.163787841797
 21
-26.418716430664
 31
0.0
  0
LINE
  5
93
100
AcDbEntity
  8
0
  6
CONTINUOUS
 62
          15
100
AcDbLine
 10
-12.163787841797
 20
-26.736221313477
 30
0.0
 11
-12.163787841797
 21
-26.736221313477
 31
0.0
  0
LINE
  5
94
100
AcDbEntity
  8
0
  6
CONTINUOUS
 62
          15
100
AcDbLine
 10
-12.163787841797
 20
-26.418716430664
 30
0.0
 11
-12.163787841797
 21
-26.736221313477
 31
0.0
  0
LINE
  5
95
100
AcDbEntity
  8
0
  6
CONTINUOUS
 62
          15
100
AcDbLine
 10
-12.163787841797
 20
-26.418716430664
 30
0.0
 11
-12.163787841797
 21
-26.418716430664
 31
0.0
  0
LINE
  5
96
100
AcDbEntity
  8
0
  6
CONTINUOUS
 62
          15
100
AcDbLine
 10
-11.528785705566
 20
-25.783721923828
 30
0.0
 11
-12.798789978027
 21
-25.783721923828
 31
0.0
  0
LINE
  5
97
100
AcDbEntity
  8
0
  6
CONTINUOUS
 62
          15
100
AcDbLine
 10
-8.429985046387
 20
-26.418716430664
 30
0.0
 11
-8.429985046387
 21
-23.878723144531
 31
0.0
  0
LINE
  5
98
100
AcDbEntity
  8
0
  6
CONTINUOUS
 62
          15
100
AcDbLine
 10
-8.429985046387
 20
-26.418716430664
 30
0.0
 11
-9.699989318848
 21
-26.418716430664
 31
0.0
  0
LINE
  5
99
100
AcDbEntity
  8
0
  6
CONTINUOUS
 62
          15
100
AcDbLine
 10
-9.699989318848
 20
-23.878723144531
 30
0.0
 11
-9.699989318848
 21
-26.418716430664
 31
0.0
  0
LINE
  5
9A
100
AcDbEntity
  8
0
  6
CONTINUOUS
 62
          15
100
AcDbLine
 10
-9.699989318848
 20
-23.878723144531
 30
0.0
 11
-8.429985046387
 21
-23.878723144531
 31
0.0
  0
LINE
  5
9B
100
AcDbEntity
  8
0
  6
CONTINUOUS
 62
          15
100
AcDbLine
 10
-9.064987182617
 20
-23.878723144531
 30
0.0
 11
-9.064987182617
 21
-23.561218261719
 31
0.0
  0
LINE
  5
9C
100
AcDbEntity
  8
0
  6
CONTINUOUS
 62
          15
100
AcDbLine
 10
-9.064987182617
 20
-23.878723144531
 30
0.0
 11
-9.064987182617
 21
-23.878723144531
 31
0.0
  0
LINE
  5
9D
100
AcDbEntity
  8
0
  6
CONTINUOUS
 62
          15
100
AcDbLine
 10
-9.064987182617
 20
-23.561218261719
 30
0.0
 11
-9.064987182617
 21
-23.878723144531
 31
0.0
  0
LINE
  5
9E
100
AcDbEntity
  8
0
  6
CONTINUOUS
 62
          15
100
AcDbLine
 10
-9.064987182617
 20
-23.561218261719
 30
0.0
 11
-9.064987182617
 21
-23.561218261719
 31
0.0
  0
LINE
  5
9F
100
AcDbEntity
  8
0
  6
CONTINUOUS
 62
          15
100
AcDbLine
 10
-9.064987182617
 20
-26.736221313477
 30
0.0
 11
-9.064987182617
 21
-26.418716430664
 31
0.0
  0
LINE
  5
A0
100
AcDbEntity
  8
0
  6
CONTINUOUS
 62
          15
100
AcDbLine
 10
-9.064987182617
 20
-26.736221313477
 30
0.0
 11
-9.064987182617
 21
-26.736221313477
 31
0.0
  0
LINE
  5
A1
100
AcDbEntity
  8
0
  6
CONTINUOUS
 62
          15
100
AcDbLine
 10
-9.064987182617
 20
-26.418716430664
 30
0.0
 11
-9.064987182617
 21
-26.736221313477
 31
0.0
  0
LINE
  5
A2
100
AcDbEntity
  8
0
  6
CONTINUOUS
 62
          15
100
AcDbLine
 10
-9.064987182617
 20
-26.418716430664
 30
0.0
 11
-9.064987182617
 21
-26.418716430664
 31
0.0
  0
LINE
  5
A3
100
AcDbEntity
  8
0
  6
CONTINUOUS
 62
          15
100
AcDbLine
 10
-8.429985046387
 20
-25.783721923828
 30
0.0
 11
-9.699989318848
 21
-25.783721923828
 31
0.0
  0
LINE
  5
A4
100
AcDbEntity
  8
0
  6
CONTINUOUS
 62
          15
100
AcDbLine
 10
-7.794990539551
 20
-23.878723144531
 30
0.0
 11
-7.794990539551
 21
-26.418716430664
 31
0.0
  0
LINE
  5
A5
100
AcDbEntity
  8
0
  6
CONTINUOUS
 62
          15
100
AcDbLine
 10
-7.794990539551
 20
-23.878723144531
 30
0.0
 11
-6.52498626709
 21
-23.878723144531
 31
0.0
  0
LINE
  5
A6
100
AcDbEntity
  8
0
  6
CONTINUOUS
 62
          15
100
AcDbLine
 10
-6.52498626709
 20
-26.418716430664
 30
0.0
 11
-6.52498626709
 21
-23.878723144531
 31
0.0
  0
LINE
  5
A7
100
AcDbEntity
  8
0
  6
CONTINUOUS
 62
          15
100
AcDbLine
 10
-6.52498626709
 20
-26.418716430664
 30
0.0
 11
-7.794990539551
 21
-26.418716430664
 31
0.0
  0
LINE
  5
A8
100
AcDbEntity
  8
0
  6
CONTINUOUS
 62
          15
100
AcDbLine
 10
-7.15998840332
 20
-26.418716430664
 30
0.0
 11
-7.15998840332
 21
-26.736221313477
 31
0.0
  0
LINE
  5
A9
100
AcDbEntity
  8
0
  6
CONTINUOUS
 62
          15
100
AcDbLine
 10
-7.15998840332
 20
-26.418716430664
 30
0.0
 11
-7.15998840332
 21
-26.418716430664
 31
0.0
  0
LINE
  5
AA
100
AcDbEntity
  8
0
  6
CONTINUOUS
 62
          15
100
AcDbLine
 10
-7.15998840332
 20
-26.736221313477
 30
0.0
 11
-7.15998840332
 21
-26.418716430664
 31
0.0
  0
LINE
  5
AB
100
AcDbEntity
  8
0
  6
CONTINUOUS
 62
          15
100
AcDbLine
 10
-7.15998840332
 20
-26.736221313477
 30
0.0
 11
-7.15998840332
 21
-26.736221313477
 31
0.0
  0
LINE
  5
AC
100
AcDbEntity
  8
0
  6
CONTINUOUS
 62
          15
100
AcDbLine
 10
-7.15998840332
 20
-23.561218261719
 30
0.0
 11
-7.15998840332
 21
-23.878723144531
 31
0.0
  0
LINE
  5
AD
100
AcDbEntity
  8
0
  6
CONTINUOUS
 62
          15
100
AcDbLine
 10
-7.15998840332
 20
-23.561218261719
 30
0.0
 11
-7.15998840332
 21
-23.561218261719
 31
0.0
  0
LINE
  5
AE
100
AcDbEntity
  8
0
  6
CONTINUOUS
 62
          15
100
AcDbLine
 10
-7.15998840332
 20
-23.878723144531
 30
0.0
 11
-7.15998840332
 21
-23.561218261719
 31
0.0
  0
LINE
  5
AF
100
AcDbEntity
  8
0
  6
CONTINUOUS
 62
          15
100
AcDbLine
 10
-7.15998840332
 20
-23.878723144531
 30
0.0
 11
-7.15998840332
 21
-23.878723144531
 31
0.0
  0
LINE
  5
B0
100
AcDbEntity
  8
0
  6
CONTINUOUS
 62
          15
100
AcDbLine
 10
-7.794990539551
 20
-24.513717651367
 30
0.0
 11
-6.52498626709
 21
-24.513717651367
 31
0.0
  0
LINE
  5
B1
100
AcDbEntity
  8
0
  6
CONTINUOUS
 62
          15
100
AcDbLine
 10
-35.099987030029
 20
-33.149719238281
 30
0.0
 11
-28.749988555908
 21
-33.149719238281
 31
0.0
  0
LINE
  5
B2
100
AcDbEntity
  8
0
  6
CONTINUOUS
 62
          15
100
AcDbLine
 10
-35.099987030029
 20
-33.149719238281
 30
0.0
 11
-35.099987030029
 21
-23.018920898438
 31
0.0
  0
LINE
  5
B3
100
AcDbEntity
  8
0
  6
CONTINUOUS
 62
          15
100
AcDbLine
 10
-28.749988555908
 20
-20.250038146973
 30
0.0
 11
-28.749988555908
 21
-33.149719238281
 31
0.0
  0
LINE
  5
B4
100
AcDbEntity
  8
0
  6
CONTINUOUS
 62
          15
100
AcDbLine
 10
3.17781829834
 20
-22.354721069336
 30
0.0
 11
13.33780670166
 21
-22.354721069336
 31
0.0
  0
LINE
  5
B5
100
AcDbEntity
  8
0
  6
CONTINUOUS
 62
          15
100
AcDbLine
 10
3.17781829834
 20
-22.354721069336
 30
0.0
 11
3.17781829834
 21
-18.897819519043
 31
0.0
  0
LINE
  5
B6
100
AcDbEntity
  8
0
  6
CONTINUOUS
 62
          15
100
AcDbLine
 10
2.441215515137
 20
-36.578720092773
 30
0.0
 11
16.258811950684
 21
-36.578720092773
 31
0.0
  0
LINE
  5
B7
100
AcDbEntity
  8
0
  6
CONTINUOUS
 62
          15
100
AcDbLine
 10
2.441215515137
 20
-36.578720092773
 30
0.0
 11
2.441215515137
 21
-18.735832214355
 31
0.0
  0
LINE
  5
B8
100
AcDbEntity
  8
0
  6
CONTINUOUS
 62
          15
100
AcDbLine
 10
16.258811950684
 20
-24.173133850098
 30
0.0
 11
16.258811950684
 21
-36.578720092773
 31
0.0
  0
ARC
  5
B9
100
AcDbEntity
  8
0
  6
CONTINUOUS
 62
          15
100
AcDbCircle
 10
9.273811340332
 20
-37.213722229004
 30
0.0
 40
4.927599906921
100
AcDbArc
 50
224.999999658377
 51
315.000002162855
  0
LINE
  5
BA
100
AcDbEntity
  8
0
  6
CONTINUOUS
 62
          15
100
AcDbLine
 10
1.653816223145
 20
-37.366119384766
 30
0.0
 11
17.058906555176
 21
-37.366119384766
 31
0.0
  0
LINE
  5
BB
100
AcDbEntity
  8
0
  6
CONTINUOUS
 62
          15
100
AcDbLine
 10
1.653816223145
 20
-37.366119384766
 30
0.0
 11
1.653816223145
 21
-18.57430267334
 31
0.0
  0
LINE
  5
BC
100
AcDbEntity
  8
0
  6
CONTINUOUS
 62
          15
100
AcDbLine
 10
17.058906555176
 20
-24.72811126709
 30
0.0
 11
17.058906555176
 21
-37.366119384766
 31
0.0
  0
ARC
  5
BD
100
AcDbEntity
  8
0
  6
CONTINUOUS
 62
          15
100
AcDbCircle
 10
-2.638786315918
 20
-46.903823852539
 30
0.0
 40
10.477499961853
100
AcDbArc
 50
36.249996170697
 51
65.750003252616
  0
ARC
  5
BE
100
AcDbEntity
  8
0
  6
CONTINUOUS
 62
          15
100
AcDbCircle
 10
21.021308898926
 20
-46.903823852539
 30
0.0
 40
10.325099945068
100
AcDbArc
 50
112.500011668334
 51
142.999996010783
  0
LINE
  5
BF
100
AcDbEntity
  8
0
  6
CONTINUOUS
 62
          15
100
AcDbLine
 10
-28.419788360596
 20
-36.007217407227
 30
0.0
 11
-20.952182769775
 21
-36.007217407227
 31
0.0
  0
LINE
  5
C0
100
AcDbEntity
  8
0
  6
CONTINUOUS
 62
          15
100
AcDbLine
 10
-28.419788360596
 20
-36.007217407227
 30
0.0
 11
-28.419788360596
 21
-28.539619445801
 31
0.0
  0
LINE
  5
C1
100
AcDbEntity
  8
0
  6
CONTINUOUS
 62
          15
100
AcDbLine
 10
-20.952182769775
 20
-28.539619445801
 30
0.0
 11
-28.419788360596
 21
-28.539619445801
 31
0.0
  0
LINE
  5
C2
100
AcDbEntity
  8
0
  6
CONTINUOUS
 62
          15
100
AcDbLine
 10
-20.952182769775
 20
-28.539619445801
 30
0.0
 11
-20.952182769775
 21
-36.007217407227
 31
0.0
  0
LINE
  5
C3
100
AcDbEntity
  8
0
  6
CONTINUOUS
 62
          15
100
AcDbLine
 10
-20.914081573486
 20
-36.007217407227
 30
0.0
 11
-13.446487426758
 21
-36.007217407227
 31
0.0
  0
LINE
  5
C4
100
AcDbEntity
  8
0
  6
CONTINUOUS
 62
          15
100
AcDbLine
 10
-20.914081573486
 20
-36.007217407227
 30
0.0
 11
-20.914081573486
 21
-28.539619445801
 31
0.0
  0
LINE
  5
C5
100
AcDbEntity
  8
0
  6
CONTINUOUS
 62
          15
100
AcDbLine
 10
-13.446487426758
 20
-28.539619445801
 30
0.0
 11
-20.914081573486
 21
-28.539619445801
 31
0.0
  0
LINE
  5
C6
100
AcDbEntity
  8
0
  6
CONTINUOUS
 62
          15
100
AcDbLine
 10
-13.446487426758
 20
-28.539619445801
 30
0.0
 11
-13.446487426758
 21
-36.007217407227
 31
0.0
  0
LINE
  5
C7
100
AcDbEntity
  8
0
  6
CONTINUOUS
 62
          15
100
AcDbLine
 10
-15.834091186523
 20
-26.710823059082
 30
0.0
 11
-15.834091186523
 21
-21.465721130371
 31
0.0
  0
LINE
  5
C8
100
AcDbEntity
  8
0
  6
CONTINUOUS
 62
          15
100
AcDbLine
 10
-15.834091186523
 20
-26.710823059082
 30
0.0
 11
-26.311588287354
 21
-26.710823059082
 31
0.0
  0
LINE
  5
C9
100
AcDbEntity
  8
0
  6
CONTINUOUS
 62
          15
100
AcDbLine
 10
-26.311588287354
 20
-21.465721130371
 30
0.0
 11
-26.311588287354
 21
-26.710823059082
 31
0.0
  0
LINE
  5
CA
100
AcDbEntity
  8
0
  6
CONTINUOUS
 62
          15
100
AcDbLine
 10
-26.311588287354
 20
-21.465721130371
 30
0.0
 11
-15.834091186523
 21
-21.465721130371
 31
0.0
  0
LINE
  5
CB
100
AcDbEntity
  8
0
  6
CONTINUOUS
 62
          15
100
AcDbLine
 10
-26.870388031006
 20
-23.92951965332
 30
0.0
 11
-26.870388031006
 21
-23.231018066406
 31
0.0
  0
LINE
  5
CC
100
AcDbEntity
  8
0
  6
CONTINUOUS
 62
          15
100
AcDbLine
 10
-26.870388031006
 20
-20.437019348145
 30
0.0
 11
-26.870388031006
 21
-21.135520935059
 31
0.0
  0
LINE
  5
CD
100
AcDbEntity
  8
0
  6
CONTINUOUS
 62
          15
100
AcDbLine
 10
-27.378383636475
 20
-21.135520935059
 30
0.0
 11
-27.378383636475
 21
-23.231018066406
 31
0.0
  0
LINE
  5
CE
100
AcDbEntity
  8
0
  6
CONTINUOUS
 62
          15
100
AcDbLine
 10
-27.378383636475
 20
-21.135520935059
 30
0.0
 11
-26.362384796143
 21
-21.135520935059
 31
0.0
  0
LINE
  5
CF
100
AcDbEntity
  8
0
  6
CONTINUOUS
 62
          15
100
AcDbLine
 10
-26.362384796143
 20
-23.231018066406
 30
0.0
 11
-26.362384796143
 21
-21.135520935059
 31
0.0
  0
LINE
  5
D0
100
AcDbEntity
  8
0
  6
CONTINUOUS
 62
          15
100
AcDbLine
 10
-26.362384796143
 20
-23.231018066406
 30
0.0
 11
-27.378383636475
 21
-23.231018066406
 31
0.0
  0
LINE
  5
D1
100
AcDbEntity
  8
0
  6
CONTINUOUS
 62
          15
100
AcDbLine
 10
-26.362384796143
 20
-21.643516540527
 30
0.0
 11
-27.378383636475
 21
-21.643516540527
 31
0.0
  0
LINE
  5
D2
100
AcDbEntity
  8
0
  6
CONTINUOUS
 62
          15
100
AcDbLine
 10
-26.362384796143
 20
-21.834022521973
 30
0.0
 11
-27.378383636475
 21
-21.834022521973
 31
0.0
  0
LINE
  5
D3
100
AcDbEntity
  8
0
  6
CONTINUOUS
 62
          15
100
AcDbLine
 10
-13.408386230469
 20
-36.007217407227
 30
0.0
 11
-5.940788269043
 21
-36.007217407227
 31
0.0
  0
LINE
  5
D4
100
AcDbEntity
  8
0
  6
CONTINUOUS
 62
          15
100
AcDbLine
 10
-13.408386230469
 20
-36.007217407227
 30
0.0
 11
-13.408386230469
 21
-28.539619445801
 31
0.0
  0
LINE
  5
D5
100
AcDbEntity
  8
0
  6
CONTINUOUS
 62
          15
100
AcDbLine
 10
-5.940788269043
 20
-28.539619445801
 30
0.0
 11
-13.408386230469
 21
-28.539619445801
 31
0.0
  0
LINE
  5
D6
100
AcDbEntity
  8
0
  6
CONTINUOUS
 62
          15
100
AcDbLine
 10
-5.940788269043
 20
-28.539619445801
 30
0.0
 11
-5.940788269043
 21
-36.007217407227
 31
0.0
  0
LINE
  5
D7
100
AcDbEntity
  8
0
  6
CONTINUOUS
 62
          15
100
AcDbLine
 10
-5.902687072754
 20
-36.007217407227
 30
0.0
 11
1.564910888672
 21
-36.007217407227
 31
0.0
  0
LINE
  5
D8
100
AcDbEntity
  8
0
  6
CONTINUOUS
 62
          15
100
AcDbLine
 10
-5.902687072754
 20
-36.007217407227
 30
0.0
 11
-5.902687072754
 21
-28.539619445801
 31
0.0
  0
LINE
  5
D9
100
AcDbEntity
  8
0
  6
CONTINUOUS
 62
          15
100
AcDbLine
 10
1.564910888672
 20
-28.539619445801
 30
0.0
 11
-5.902687072754
 21
-28.539619445801
 31
0.0
  0
LINE
  5
DA
100
AcDbEntity
  8
0
  6
CONTINUOUS
 62
          15
100
AcDbLine
 10
1.564910888672
 20
-28.539619445801
 30
0.0
 11
1.564910888672
 21
-36.007217407227
 31
0.0
  0
LINE
  5
DB
100
AcDbEntity
  8
0
  6
CONTINUOUS
 62
          15
100
AcDbLine
 10
5.895606994629
 20
-32.387718200684
 30
0.0
 11
3.889015197754
 21
-32.387718200684
 31
0.0
  0
LINE
  5
DC
100
AcDbEntity
  8
0
  6
CONTINUOUS
 62
          15
100
AcDbLine
 10
3.889015197754
 20
-32.387718200684
 30
0.0
 11
2.898414611816
 21
-34.140319824219
 31
0.0
  0
LINE
  5
DD
100
AcDbEntity
  8
0
  6
CONTINUOUS
 62
          15
100
AcDbLine
 10
2.898414611816
 20
-34.140319824219
 30
0.0
 11
3.889015197754
 21
-35.892921447754
 31
0.0
  0
LINE
  5
DE
100
AcDbEntity
  8
0
  6
CONTINUOUS
 62
          15
100
AcDbLine
 10
3.889015197754
 20
-35.892921447754
 30
0.0
 11
5.895606994629
 21
-35.892921447754
 31
0.0
  0
LINE
  5
DF
100
AcDbEntity
  8
0
  6
CONTINUOUS
 62
          15
100
AcDbLine
 10
5.895606994629
 20
-35.892921447754
 30
0.0
 11
6.886207580566
 21
-34.140319824219
 31
0.0
  0
LINE
  5
E0
100
AcDbEntity
  8
0
  6
CONTINUOUS
 62
          15
100
AcDbLine
 10
6.886207580566
 20
-34.140319824219
 30
0.0
 11
5.895606994629
 21
-32.387718200684
 31
0.0
  0
CIRCLE
  5
E1
100
AcDbEntity
  8
0
  6
CONTINUOUS
 62
          15
100
AcDbCircle
 10
4.892311096191
 20
-34.140319824219
 30
0.0
 40
2.247900009155
  0
LINE
  5
E2
100
AcDbEntity
  8
0
  6
CONTINUOUS
 62
          15
100
AcDbLine
 10
-32.051982879639
 20
-34.724517822266
 30
0.0
 11
-32.051982879639
 21
-34.724517822266
 31
0.0
  0
LINE
  5
E3
100
AcDbEntity
  8
0
  6
CONTINUOUS
 62
          15
100
AcDbLine
 10
-32.051982879639
 20
-34.724517822266
 30
0.0
 11
-32.051982879639
 21
-33.454521179199
 31
0.0
  0
LINE
  5
E4
100
AcDbEntity
  8
0
  6
CONTINUOUS
 62
          15
100
AcDbLine
 10
-32.051982879639
 20
-33.454521179199
 30
0.0
 11
-32.051982879639
 21
-33.454521179199
 31
0.0
  0
LINE
  5
E5
100
AcDbEntity
  8
0
  6
CONTINUOUS
 62
          15
100
AcDbLine
 10
-32.051982879639
 20
-33.454521179199
 30
0.0
 11
-32.051982879639
 21
-34.724517822266
 31
0.0
  0
LINE
  5
E6
100
AcDbEntity
  8
0
  6
CONTINUOUS
 62
          15
100
AcDbLine
 10
-31.734485626221
 20
-34.08952331543
 30
0.0
 11
-31.416988372803
 21
-34.08952331543
 31
0.0
  0
LINE
  5
E7
100
AcDbEntity
  8
0
  6
CONTINUOUS
 62
          15
100
AcDbLine
 10
-31.734485626221
 20
-34.08952331543
 30
0.0
 11
-31.734485626221
 21
-34.08952331543
 31
0.0
  0
LINE
  5
E8
100
AcDbEntity
  8
0
  6
CONTINUOUS
 62
          15
100
AcDbLine
 10
-31.416988372803
 20
-34.08952331543
 30
0.0
 11
-31.734485626221
 21
-34.08952331543
 31
0.0
  0
LINE
  5
E9
100
AcDbEntity
  8
0
  6
CONTINUOUS
 62
          15
100
AcDbLine
 10
-31.416988372803
 20
-34.08952331543
 30
0.0
 11
-31.416988372803
 21
-34.08952331543
 31
0.0
  0
LINE
  5
EA
100
AcDbEntity
  8
0
  6
CONTINUOUS
 62
          15
100
AcDbLine
 10
-32.051982879639
 20
-34.08952331543
 30
0.0
 11
-32.369487762451
 21
-34.08952331543
 31
0.0
  0
LINE
  5
EB
100
AcDbEntity
  8
0
  6
CONTINUOUS
 62
          15
100
AcDbLine
 10
-32.051982879639
 20
-34.08952331543
 30
0.0
 11
-32.051982879639
 21
-34.08952331543
 31
0.0
  0
LINE
  5
EC
100
AcDbEntity
  8
0
  6
CONTINUOUS
 62
          15
100
AcDbLine
 10
-32.369487762451
 20
-34.08952331543
 30
0.0
 11
-32.051982879639
 21
-34.08952331543
 31
0.0
  0
LINE
  5
ED
100
AcDbEntity
  8
0
  6
CONTINUOUS
 62
          15
100
AcDbLine
 10
-32.369487762451
 20
-34.08952331543
 30
0.0
 11
-32.369487762451
 21
-34.08952331543
 31
0.0
  0
LINE
  5
EE
100
AcDbEntity
  8
0
  6
CONTINUOUS
 62
          15
100
AcDbLine
 10
-31.734485626221
 20
-33.454521179199
 30
0.0
 11
-31.734485626221
 21
-34.724517822266
 31
0.0
  0
LINE
  5
EF
100
AcDbEntity
  8
0
  6
CONTINUOUS
 62
          15
100
AcDbLine
 10
-0.251190185547
 20
-26.926719665527
 30
0.0
 11
-0.251190185547
 21
-26.926719665527
 31
0.0
  0
LINE
  5
F0
100
AcDbEntity
  8
0
  6
CONTINUOUS
 62
          15
100
AcDbLine
 10
-0.251190185547
 20
-26.926719665527
 30
0.0
 11
-0.251190185547
 21
-28.196723937988
 31
0.0
  0
LINE
  5
F1
100
AcDbEntity
  8
0
  6
CONTINUOUS
 62
          15
100
AcDbLine
 10
-0.251190185547
 20
-28.196723937988
 30
0.0
 11
-0.251190185547
 21
-28.196723937988
 31
0.0
  0
LINE
  5
F2
100
AcDbEntity
  8
0
  6
CONTINUOUS
 62
          15
100
AcDbLine
 10
-0.251190185547
 20
-28.196723937988
 30
0.0
 11
-0.251190185547
 21
-26.926719665527
 31
0.0
  0
LINE
  5
F3
100
AcDbEntity
  8
0
  6
CONTINUOUS
 62
          15
100
AcDbLine
 10
-0.886184692383
 20
-26.926719665527
 30
0.0
 11
-0.886184692383
 21
-26.926719665527
 31
0.0
  0
LINE
  5
F4
100
AcDbEntity
  8
0
  6
CONTINUOUS
 62
          15
100
AcDbLine
 10
-0.886184692383
 20
-26.926719665527
 30
0.0
 11
-0.886184692383
 21
-28.196723937988
 31
0.0
  0
LINE
  5
F5
100
AcDbEntity
  8
0
  6
CONTINUOUS
 62
          15
100
AcDbLine
 10
-0.886184692383
 20
-28.196723937988
 30
0.0
 11
-0.886184692383
 21
-28.196723937988
 31
0.0
  0
LINE
  5
F6
100
AcDbEntity
  8
0
  6
CONTINUOUS
 62
          15
100
AcDbLine
 10
-0.886184692383
 20
-28.196723937988
 30
0.0
 11
-0.886184692383
 21
-26.926719665527
 31
0.0
  0
LINE
  5
F7
100
AcDbEntity
  8
0
  6
CONTINUOUS
 62
          15
100
AcDbLine
 10
0.066314697266
 20
-27.561721801758
 30
0.0
 11
-0.251190185547
 21
-27.561721801758
 31
0.0
  0
LINE
  5
F8
100
AcDbEntity
  8
0
  6
CONTINUOUS
 62
          15
100
AcDbLine
 10
0.066314697266
 20
-27.561721801758
 30
0.0
 11
0.066314697266
 21
-27.561721801758
 31
0.0
  0
LINE
  5
F9
100
AcDbEntity
  8
0
  6
CONTINUOUS
 62
          15
100
AcDbLine
 10
-0.251190185547
 20
-27.561721801758
 30
0.0
 11
0.066314697266
 21
-27.561721801758
 31
0.0
  0
LINE
  5
FA
100
AcDbEntity
  8
0
  6
CONTINUOUS
 62
          15
100
AcDbLine
 10
-0.251190185547
 20
-27.561721801758
 30
0.0
 11
-0.251190185547
 21
-27.561721801758
 31
0.0
  0
LINE
  5
FB
100
AcDbEntity
  8
0
  6
CONTINUOUS
 62
          15
100
AcDbLine
 10
-0.886184692383
 20
-27.561721801758
 30
0.0
 11
-1.203689575195
 21
-27.561721801758
 31
0.0
  0
LINE
  5
FC
100
AcDbEntity
  8
0
  6
CONTINUOUS
 62
          15
100
AcDbLine
 10
-0.886184692383
 20
-27.561721801758
 30
0.0
 11
-0.886184692383
 21
-27.561721801758
 31
0.0
  0
LINE
  5
FD
100
AcDbEntity
  8
0
  6
CONTINUOUS
 62
          15
100
AcDbLine
 10
-1.203689575195
 20
-27.561721801758
 30
0.0
 11
-0.886184692383
 21
-27.561721801758
 31
0.0
  0
LINE
  5
FE
100
AcDbEntity
  8
0
  6
CONTINUOUS
 62
          15
100
AcDbLine
 10
-1.203689575195
 20
-27.561721801758
 30
0.0
 11
-1.203689575195
 21
-27.561721801758
 31
0.0
  0
TEXT
  5
FF
100
AcDbEntity
  8
0
  6
CONTINUOUS
 62
          15
100
AcDbText
 10
-5.20418549883
 20
-38.102722324431
 30
0.0
 40
0.990600049496
  1
1
 50
0.000002504478
 41
0.999999894702
  7
TXT
100
AcDbText
  0
TEXT
  5
100
100
AcDbEntity
  8
0
  6
CONTINUOUS
 62
          15
100
AcDbText
 10
-6.601188672658
 20
-40.769722141325
 30
0.0
 40
0.990600049496
  1
SIGNALS
 50
0.000002504478
 41
1.03703698021
  7
TXT
100
AcDbText
  0
TEXT
  5
101
100
AcDbEntity
  8
0
  6
CONTINUOUS
 62
          15
100
AcDbText
 10
-7.491188062299
 20
-38.100315980613
 30
0.0
 40
0.990000009537
  1
1
 50
0.000002504478
 41
0.999999969897
  7
TXT
100
AcDbText
  0
TEXT
  5
102
100
AcDbEntity
  8
0
  6
CONTINUOUS
 62
          15
100
AcDbText
 10
-2.537185681935
 20
-38.102722324431
 30
0.0
 40
0.990600049496
  1
2
 50
0.000002504478
 41
0.999999894702
  7
TXT
100
AcDbText
  0
TEXT
  5
103
100
AcDbEntity
  8
0
  6
CONTINUOUS
 62
          15
100
AcDbText
 10
-0.12419129717
 20
-38.102722324431
 30
0.0
 40
0.990600049496
  1
2
 50
0.000002504478
 41
0.999999894702
  7
TXT
100
AcDbText
  0
TEXT
  5
104
100
AcDbEntity
  8
0
  6
CONTINUOUS
 62
          15
100
AcDbText
 10
-21.587184749544
 20
-40.642723096486
 30
0.0
 40
0.990600049496
  1
MUTE
 50
90.000005008956
 41
1.074073990504
  7
TXT
100
AcDbText
  0
TEXT
  5
105
100
AcDbEntity
  8
0
  6
CONTINUOUS
 62
          15
100
AcDbText
 10
-19.176181636751
 20
-40.640319837209
 30
0.0
 40
0.990600049496
  1
TEST
 50
89.999994991043
 41
1.074073990504
  7
TXT
100
AcDbText
  0
TEXT
  5
106
100
AcDbEntity
  8
0
  6
CONTINUOUS
 62
          15
100
AcDbText
 10
-16.634185634553
 20
-40.642723096486
 30
0.0
 40
0.990600049496
  1
COM
 50
90.000005008956
 41
1.111111030884
  7
TXT
100
AcDbText
  0
TEXT
  5
107
100
AcDbEntity
  8
0
  6
CONTINUOUS
 62
          15
100
AcDbText
 10
-14.094184719026
 20
-40.642723096486
 30
0.0
 40
0.990600049496
  1
AUD
 50
90.000005008956
 41
1.111111030884
  7
TXT
100
AcDbText
  0
TEXT
  5
108
100
AcDbEntity
  8
0
  6
CONTINUOUS
 62
          15
100
AcDbText
 10
-11.554191432893
 20
-40.642723096486
 30
0.0
 40
0.990600049496
  1
+Ve
 50
90.000005008956
 41
1.111111030884
  7
TXT
100
AcDbText
  0
TEXT
  5
109
100
AcDbEntity
  8
0
  6
CONTINUOUS
 62
          15
100
AcDbText
 10
-9.014190517366
 20
-40.642723096486
 30
0.0
 40
0.990600049496
  1
-Ve
 50
90.000005008956
 41
1.111111030884
  7
TXT
100
AcDbText
  0
TEXT
  5
10A
100
AcDbEntity
  8
0
  6
CONTINUOUS
 62
          15
100
AcDbText
 10
-28.064182294476
 20
-40.642720155418
 30
0.0
 40
0.990000009537
  1
RELAY
 50
0.000002504478
 41
0.954545408022
  7
TXT
100
AcDbText
  0
TEXT
  5
10B
100
AcDbEntity
  8
0
  6
CONTINUOUS
 62
          15
100
AcDbText
 10
-35.811183939436
 20
-37.21372179687
 30
0.0
 40
0.761999964714
  1
SDX15PS
 50
0.000002504478
 41
1.037037092082
  7
TXT
100
AcDbText
  0
TEXT
  5
10C
100
AcDbEntity
  8
0
  6
CONTINUOUS
 62
          15
100
AcDbText
 10
-36.446186075666
 20
-39.62672381103
 30
0.0
 40
0.761999964714
  1
SERIAL No
 50
0.000002504478
 41
1.027777838617
  7
TXT
100
AcDbText
  0
TEXT
  5
10D
100
AcDbEntity
  8
0
  6
CONTINUOUS
 62
          15
100
AcDbText
 10
-35.938182840803
 20
-38.356719538569
 30
0.0
 40
0.761999964714
  1
ISSUE B
 50
0.000002504478
 41
1.037037092082
  7
TXT
100
AcDbText
  0
LINE
  5
10E
100
AcDbEntity
  8
0
  6
CONTINUOUS
 62
          15
100
AcDbLine
 10
-28.391185760498
 20
-41.772010803223
 30
0.0
 11
1.608810424805
 21
-41.772010803223
 31
0.0
  0
LINE
  5
10F
100
AcDbEntity
  8
0
  6
CONTINUOUS
 62
          15
100
AcDbLine
 10
-37.620960235596
 20
-41.772010803223
 30
0.0
 11
-28.927890777588
 21
-41.772010803223
 31
0.0
  0
LINE
  5
110
100
AcDbEntity
  8
0
  6
CONTINUOUS
 62
          15
100
AcDbLine
 10
1.608810424805
 20
-36.007217407227
 30
0.0
 11
1.608810424805
 21
-41.772010803223
 31
0.0
  0
LINE
  5
111
100
AcDbEntity
  8
0
  6
CONTINUOUS
 62
          15
100
AcDbLine
 10
-3.391189575195
 20
-36.007217407227
 30
0.0
 11
-3.391189575195
 21
-38.957122802734
 31
0.0
  0
LINE
  5
112
100
AcDbEntity
  8
0
  6
CONTINUOUS
 62
          15
100
AcDbLine
 10
-8.391189575195
 20
-36.007217407227
 30
0.0
 11
-8.391189575195
 21
-41.772010803223
 31
0.0
  0
LINE
  5
113
100
AcDbEntity
  8
0
  6
CONTINUOUS
 62
          15
100
AcDbLine
 10
-28.391185760498
 20
-36.007217407227
 30
0.0
 11
-28.391185760498
 21
-41.772010803223
 31
0.0
  0
LINE
  5
114
100
AcDbEntity
  8
0
  6
CONTINUOUS
 62
          15
100
AcDbLine
 10
-23.391185760498
 20
-36.007217407227
 30
0.0
 11
-23.391185760498
 21
-41.772010803223
 31
0.0
  0
LINE
  5
115
100
AcDbEntity
  8
0
  6
CONTINUOUS
 62
          15
100
AcDbLine
 10
-15.891189575195
 20
-36.007217407227
 30
0.0
 11
-15.891189575195
 21
-41.772010803223
 31
0.0
  0
LINE
  5
116
100
AcDbEntity
  8
0
  6
CONTINUOUS
 62
          15
100
AcDbLine
 10
-8.391189575195
 20
-38.957122802734
 30
0.0
 11
1.608810424805
 21
-38.957122802734
 31
0.0
  0
LINE
  5
117
100
AcDbEntity
  8
0
  6
CONTINUOUS
 62
          15
100
AcDbLine
 10
-37.620960235596
 20
-35.163139343262
 30
0.0
 11
-28.927890777588
 21
-35.163139343262
 31
0.0
  0
LINE
  5
118
100
AcDbEntity
  8
0
  6
CONTINUOUS
 62
          15
100
AcDbLine
 10
-28.927890777588
 20
-35.163139343262
 30
0.0
 11
-28.927890777588
 21
-41.772010803223
 31
0.0
  0
LINE
  5
119
100
AcDbEntity
  8
0
  6
CONTINUOUS
 62
          15
100
AcDbLine
 10
-37.620960235596
 20
-35.163139343262
 30
0.0
 11
-37.620960235596
 21
-41.772010803223
 31
0.0
  0
TEXT
  5
11A
100
AcDbEntity
  8
0
  6
CONTINUOUS
 62
          15
100
AcDbText
 10
6.946342455279
 20
-31.491536073387
 30
0.0
 40
0.990000009537
  1
L
 50
0.000002504478
 41
0.954545408022
  7
TXT
100
AcDbText
  0
TEXT
  5
11B
100
AcDbEntity
  8
0
  6
CONTINUOUS
 62
          15
100
AcDbText
 10
11.966285692584
 20
-31.613919191062
 30
0.0
 40
0.990000009537
  1
N
 50
0.000002504478
 41
0.954545408022
  7
TXT
100
AcDbText
  0
ELLIPSE
  5
11C
100
AcDbEntity
  8
0
  6
CONTINUOUS
 62
          15
100
AcDbEllipse
 10
-10.367683410645
 20
-34.92652130127
 30
0.0
 11
33.75
 21
0.0
 31
0.0
210
0.0
220
0.0
230
1.0
 40
0.518518518519
 41
0.0
 42
6.2831853071795862
  0
LINE
  5
11D
100
AcDbEntity
  8
0
  6
CONTINUOUS
 62
          15
100
AcDbLine
 10
-11.617683410645
 20
-17.42652130127
 30
0.0
 11
0.0
 21
0.0
 31
0.0
  0
LINE
  5
11E
100
AcDbEntity
  8
0
  6
CONTINUOUS
 62
          15
100
AcDbLine
 10
8.347694396973
 20
-32.254753112793
 30
0.0
 11
11.480659484863
 21
-32.254753112793
 31
0.0
  0
LINE
  5
11F
100
AcDbEntity
  8
0
  6
CONTINUOUS
 62
          15
100
AcDbLine
 10
8.81583404541
 20
-32.866683959961
 30
0.0
 11
10.904487609863
 21
-32.866683959961
 31
0.0
  0
LINE
  5
120
100
AcDbEntity
  8
0
  6
CONTINUOUS
 62
          15
100
AcDbLine
 10
9.283988952637
 20
-33.478614807129
 30
0.0
 11
10.328300476074
 21
-33.478614807129
 31
0.0
  0
LINE
  5
121
100
AcDbEntity
  8
0
  6
CONTINUOUS
 62
          15
100
AcDbLine
 10
9.752128601074
 20
-29.593719482422
 30
0.0
 11
9.752128601074
 21
-32.254753112793
 31
0.0
  0
LINE
  5
122
100
AcDbEntity
  8
0
  6
CONTINUOUS
 62
          15
100
AcDbLine
 10
-28.419788360596
 20
-32.42652130127
 30
0.0
 11
1.564910888672
 21
-32.42652130127
 31
0.0
  0
LINE
  5
123
100
AcDbEntity
  8
0
  6
CONTINUOUS
 62
          15
100
AcDbLine
 10
-24.131549835205
 20
-31.121849060059
 30
0.0
 11
-24.998310089111
 21
-30.255088806152
 31
0.0
  0
ELLIPSE
  5
124
100
AcDbEntity
  8
0
  6
CONTINUOUS
 62
          15
100
AcDbEllipse
 10
-24.554294586182
 20
-30.683265686035
 30
0.0
 11
0.7689140065494247
 21
0.0240385223032541
 31
0.0
210
0.0
220
0.0
230
1.0
 40
0.692971446489
 41
0.0
 42
6.2831853071795862
  0
LINE
  5
125
100
AcDbEntity
  8
0
  6
CONTINUOUS
 62
          15
100
AcDbLine
 10
-26.679958343506
 20
-31.104621887207
 30
0.0
 11
-27.546718597412
 21
-30.237861633301
 31
0.0
  0
ELLIPSE
  5
126
100
AcDbEntity
  8
0
  6
CONTINUOUS
 62
          15
100
AcDbEllipse
 10
-27.102703094482
 20
-30.666038513184
 30
0.0
 11
0.7689140065494247
 21
0.0240385223032562
 31
0.0
210
0.0
220
0.0
230
1.0
 40
0.692971446489
 41
0.0
 42
6.2831853071795862
  0
LINE
  5
127
100
AcDbEntity
  8
0
  6
CONTINUOUS
 62
          15
100
AcDbLine
 10
-21.682018280029
 20
-31.104621887207
 30
0.0
 11
-22.548778533936
 21
-30.237861633301
 31
0.0
  0
ELLIPSE
  5
128
100
AcDbEntity
  8
0
  6
CONTINUOUS
 62
          15
100
AcDbEllipse
 10
-22.104763031006
 20
-30.666038513184
 30
0.0
 11
0.768914006549423
 21
0.024038522303254
 31
0.0
210
0.0
220
0.0
230
1.0
 40
0.692971446489
 41
0.0
 42
6.2831853071795862
  0
LINE
  5
129
100
AcDbEntity
  8
0
  6
CONTINUOUS
 62
          15
100
AcDbLine
 10
-19.231105804443
 20
-31.104621887207
 30
0.0
 11
-20.09786605835
 21
-30.237861633301
 31
0.0
  0
ELLIPSE
  5
12A
100
AcDbEntity
  8
0
  6
CONTINUOUS
 62
          15
100
AcDbEllipse
 10
-19.65385055542
 20
-30.666038513184
 30
0.0
 11
0.768914006549423
 21
0.024038522303254
 31
0.0
210
0.0
220
0.0
230
1.0
 40
0.692971446489
 41
0.0
 42
6.2831853071795862
  0
LINE
  5
12B
100
AcDbEntity
  8
0
  6
CONTINUOUS
 62
          15
100
AcDbLine
 10
-16.68408203125
 20
-31.104621887207
 30
0.0
 11
-17.550842285156
 21
-30.237861633301
 31
0.0
  0
ELLIPSE
  5
12C
100
AcDbEntity
  8
0
  6
CONTINUOUS
 62
          15
100
AcDbEllipse
 10
-17.106826782227
 20
-30.666038513184
 30
0.0
 11
0.768914006549423
 21
0.024038522303254
 31
0.0
210
0.0
220
0.0
230
1.0
 40
0.692971446489
 41
0.0
 42
6.2831853071795862
  0
LINE
  5
12D
100
AcDbEntity
  8
0
  6
CONTINUOUS
 62
          15
100
AcDbLine
 10
-14.233169555664
 20
-31.104621887207
 30
0.0
 11
-15.09992980957
 21
-30.237861633301
 31
0.0
  0
ELLIPSE
  5
12E
100
AcDbEntity
  8
0
  6
CONTINUOUS
 62
          15
100
AcDbEllipse
 10
-14.655914306641
 20
-30.666038513184
 30
0.0
 11
0.768914006549423
 21
0.024038522303254
 31
0.0
210
0.0
220
0.0
230
1.0
 40
0.692971446489
 41
0.0
 42
6.2831853071795862
  0
LINE
  5
12F
100
AcDbEntity
  8
0
  6
CONTINUOUS
 62
          15
100
AcDbLine
 10
-11.636573791504
 20
-31.117050170898
 30
0.0
 11
-12.50333404541
 21
-30.250289916992
 31
0.0
  0
ELLIPSE
  5
130
100
AcDbEntity
  8
0
  6
CONTINUOUS
 62
          15
100
AcDbEllipse
 10
-12.05931854248
 20
-30.678466796875
 30
0.0
 11
0.768914006549423
 21
0.024038522303254
 31
0.0
210
0.0
220
0.0
230
1.0
 40
0.692971446489
 41
0.0
 42
6.2831853071795862
  0
LINE
  5
131
100
AcDbEntity
  8
0
  6
CONTINUOUS
 62
          15
100
AcDbLine
 10
-9.01293182373
 20
-31.117050170898
 30
0.0
 11
-9.879692077637
 21
-30.250289916992
 31
0.0
  0
ELLIPSE
  5
132
100
AcDbEntity
  8
0
  6
CONTINUOUS
 62
          15
100
AcDbEllipse
 10
-9.435676574707
 20
-30.678466796875
 30
0.0
 11
0.768914006549423
 21
0.024038522303254
 31
0.0
210
0.0
220
0.0
230
1.0
 40
0.692971446489
 41
0.0
 42
6.2831853071795862
  0
LINE
  5
133
100
AcDbEntity
  8
0
  6
CONTINUOUS
 62
          15
100
AcDbLine
 10
-6.680793762207
 20
-31.117050170898
 30
0.0
 11
-7.547554016113
 21
-30.250289916992
 31
0.0
  0
ELLIPSE
  5
134
100
AcDbEntity
  8
0
  6
CONTINUOUS
 62
          15
100
AcDbEllipse
 10
-7.103538513184
 20
-30.678466796875
 30
0.0
 11
0.768914006549423
 21
0.024038522303254
 31
0.0
210
0.0
220
0.0
230
1.0
 40
0.692971446489
 41
0.0
 42
6.2831853071795862
  0
LINE
  5
135
100
AcDbEntity
  8
0
  6
CONTINUOUS
 62
          15
100
AcDbLine
 10
-4.390312194824
 20
-31.117050170898
 30
0.0
 11
-5.25707244873
 21
-30.250289916992
 31
0.0
  0
ELLIPSE
  5
136
100
AcDbEntity
  8
0
  6
CONTINUOUS
 62
          15
100
AcDbEllipse
 10
-4.813056945801
 20
-30.678466796875
 30
0.0
 11
0.768914006549423
 21
0.024038522303254
 31
0.0
210
0.0
220
0.0
230
1.0
 40
0.692971446489
 41
0.0
 42
6.2831853071795862
  0
LINE
  5
137
100
AcDbEntity
  8
0
  6
CONTINUOUS
 62
          15
100
AcDbLine
 10
-1.72501373291
 20
-31.117050170898
 30
0.0
 11
-2.591773986816
 21
-30.250289916992
 31
0.0
  0
ELLIPSE
  5
138
100
AcDbEntity
  8
0
  6
CONTINUOUS
 62
          15
100
AcDbEllipse
 10
-2.147758483887
 20
-30.678466796875
 30
0.0
 11
0.768914006549423
 21
0.024038522303254
 31
0.0
210
0.0
220
0.0
230
1.0
 40
0.692971446489
 41
0.0
 42
6.2831853071795862
  0
LINE
  5
139
100
AcDbEntity
  8
0
  6
CONTINUOUS
 62
          15
100
AcDbLine
 10
0.690406799316
 20
-31.117050170898
 30
0.0
 11
-0.17635345459
 21
-30.250289916992
 31
0.0
  0
ELLIPSE
  5
13A
100
AcDbEntity
  8
0
  6
CONTINUOUS
 62
          15
100
AcDbEllipse
 10
0.26766204834
 20
-30.678466796875
 30
0.0
 11
0.768914006549423
 21
0.024038522303254
 31
0.0
210
0.0
220
0.0
230
1.0
 40
0.692971446489
 41
0.0
 42
6.2831853071795862
  0
LINE
  5
13B
100
AcDbEntity
  8
0
  6
CONTINUOUS
 62
          15
100
AcDbLine
 10
7.632820129395
 20
-25.431518554688
 30
0.0
 11
6.766059875488
 21
-24.564758300781
 31
0.0
  0
ELLIPSE
  5
13C
100
AcDbEntity
  8
0
  6
CONTINUOUS
 62
          15
100
AcDbEllipse
 10
7.210075378418
 20
-24.992935180664
 30
0.0
 11
0.768914006549423
 21
0.024038522303254
 31
0.0
210
0.0
220
0.0
230
1.0
 40
0.692971446489
 41
0.0
 42
6.2831853071795862
  0
LINE
  5
13D
100
AcDbEntity
  8
0
  6
CONTINUOUS
 62
          15
100
AcDbLine
 10
10.179847717285
 20
-25.431518554688
 30
0.0
 11
9.313087463379
 21
-24.564758300781
 31
0.0
  0
ELLIPSE
  5
13E
100
AcDbEntity
  8
0
  6
CONTINUOUS
 62
          15
100
AcDbEllipse
 10
9.757102966309
 20
-24.992935180664
 30
0.0
 11
0.768914006549423
 21
0.024038522303254
 31
0.0
210
0.0
220
0.0
230
1.0
 40
0.692971446489
 41
0.0
 42
6.2831853071795862
  0
LINE
  5
13F
100
AcDbEntity
  8
0
  6
CONTINUOUS
 62
          15
100
AcDbLine
 10
12.726875305176
 20
-25.431518554688
 30
0.0
 11
11.86011505127
 21
-24.564758300781
 31
0.0
  0
ELLIPSE
  5
140
100
AcDbEntity
  8
0
  6
CONTINUOUS
 62
          15
100
AcDbEllipse
 10
12.304130554199
 20
-24.992935180664
 30
0.0
 11
0.768914006549423
 21
0.024038522303254
 31
0.0
210
0.0
220
0.0
230
1.0
 40
0.692971446489
 41
0.0
 42
6.2831853071795862
  0
LINE
  5
141
100
AcDbEntity
  8
0
  6
CONTINUOUS
 62
          15
100
AcDbLine
 10
5.717811584473
 20
-26.680839538574
 30
0.0
 11
13.33780670166
 21
-26.680839538574
 31
0.0
  0
LINE
  5
142
100
AcDbEntity
  8
0
  6
CONTINUOUS
 62
          15
100
AcDbLine
 10
-2.817085266113
 20
-33.260345458984
 30
0.0
 11
-1.471488952637
 21
-33.260345458984
 31
0.0
  0
LINE
  5
143
100
AcDbEntity
  8
0
  6
CONTINUOUS
 62
          15
100
AcDbLine
 10
-1.471488952637
 20
-33.260345458984
 30
0.0
 11
-1.471488952637
 21
-35.183433532715
 31
0.0
  0
LINE
  5
144
100
AcDbEntity
  8
0
  6
CONTINUOUS
 62
          15
100
AcDbLine
 10
-1.471488952637
 20
-35.183433532715
 30
0.0
 11
-2.817085266113
 21
-35.183433532715
 31
0.0
  0
LINE
  5
145
100
AcDbEntity
  8
0
  6
CONTINUOUS
 62
          15
100
AcDbLine
 10
-2.817085266113
 20
-35.183433532715
 30
0.0
 11
-2.817085266113
 21
-33.260345458984
 31
0.0
  0
LINE
  5
146
100
AcDbEntity
  8
0
  6
CONTINUOUS
 62
          15
100
AcDbLine
 10
-2.817085266113
 20
-34.558433532715
 30
0.0
 11
-1.471488952637
 21
-34.558433532715
 31
0.0
  0
LINE
  5
147
100
AcDbEntity
  8
0
  6
CONTINUOUS
 62
          15
100
AcDbLine
 10
-5.497627258301
 20
-33.260345458984
 30
0.0
 11
-4.152030944824
 21
-33.260345458984
 31
0.0
  0
LINE
  5
148
100
AcDbEntity
  8
0
  6
CONTINUOUS
 62
          15
100
AcDbLine
 10
-4.152030944824
 20
-33.260345458984
 30
0.0
 11
-4.152030944824
 21
-35.183433532715
 31
0.0
  0
LINE
  5
149
100
AcDbEntity
  8
0
  6
CONTINUOUS
 62
          15
100
AcDbLine
 10
-4.152030944824
 20
-35.183433532715
 30
0.0
 11
-5.497627258301
 21
-35.183433532715
 31
0.0
  0
LINE
  5
14A
100
AcDbEntity
  8
0
  6
CONTINUOUS
 62
          15
100
AcDbLine
 10
-5.497627258301
 20
-35.183433532715
 30
0.0
 11
-5.497627258301
 21
-33.260345458984
 31
0.0
  0
LINE
  5
14B
100
AcDbEntity
  8
0
  6
CONTINUOUS
 62
          15
100
AcDbLine
 10
-5.497627258301
 20
-34.558433532715
 30
0.0
 11
-4.152030944824
 21
-34.558433532715
 31
0.0
  0
LINE
  5
14C
100
AcDbEntity
  8
0
  6
CONTINUOUS
 62
          15
100
AcDbLine
 10
-0.369636535645
 20
-33.260345458984
 30
0.0
 11
0.975959777832
 21
-33.260345458984
 31
0.0
  0
LINE
  5
14D
100
AcDbEntity
  8
0
  6
CONTINUOUS
 62
          15
100
AcDbLine
 10
0.975959777832
 20
-33.260345458984
 30
0.0
 11
0.975959777832
 21
-35.183433532715
 31
0.0
  0
LINE
  5
14E
100
AcDbEntity
  8
0
  6
CONTINUOUS
 62
          15
100
AcDbLine
 10
0.975959777832
 20
-35.183433532715
 30
0.0
 11
-0.369636535645
 21
-35.183433532715
 31
0.0
  0
LINE
  5
14F
100
AcDbEntity
  8
0
  6
CONTINUOUS
 62
          15
100
AcDbLine
 10
-0.369636535645
 20
-35.183433532715
 30
0.0
 11
-0.369636535645
 21
-33.260345458984
 31
0.0
  0
LINE
  5
150
100
AcDbEntity
  8
0
  6
CONTINUOUS
 62
          15
100
AcDbLine
 10
-0.369636535645
 20
-34.558433532715
 30
0.0
 11
0.975959777832
 21
-34.558433532715
 31
0.0
  0
LINE
  5
151
100
AcDbEntity
  8
0
  6
CONTINUOUS
 62
          15
100
AcDbLine
 10
-10.04288482666
 20
-33.261054992676
 30
0.0
 11
-8.697288513184
 21
-33.261054992676
 31
0.0
  0
LINE
  5
152
100
AcDbEntity
  8
0
  6
CONTINUOUS
 62
          15
100
AcDbLine
 10
-8.697288513184
 20
-33.261054992676
 30
0.0
 11
-8.697288513184
 21
-35.184143066406
 31
0.0
  0
LINE
  5
153
100
AcDbEntity
  8
0
  6
CONTINUOUS
 62
          15
100
AcDbLine
 10
-8.697288513184
 20
-35.184143066406
 30
0.0
 11
-10.04288482666
 21
-35.184143066406
 31
0.0
  0
LINE
  5
154
100
AcDbEntity
  8
0
  6
CONTINUOUS
 62
          15
100
AcDbLine
 10
-10.04288482666
 20
-35.184143066406
 30
0.0
 11
-10.04288482666
 21
-33.261054992676
 31
0.0
  0
LINE
  5
155
100
AcDbEntity
  8
0
  6
CONTINUOUS
 62
          15
100
AcDbLine
 10
-10.04288482666
 20
-34.559143066406
 30
0.0
 11
-8.697288513184
 21
-34.559143066406
 31
0.0
  0
LINE
  5
156
100
AcDbEntity
  8
0
  6
CONTINUOUS
 62
          15
100
AcDbLine
 10
-12.723426818848
 20
-33.261054992676
 30
0.0
 11
-11.377830505371
 21
-33.261054992676
 31
0.0
  0
LINE
  5
157
100
AcDbEntity
  8
0
  6
CONTINUOUS
 62
          15
100
AcDbLine
 10
-11.377830505371
 20
-33.261054992676
 30
0.0
 11
-11.377830505371
 21
-35.184143066406
 31
0.0
  0
LINE
  5
158
100
AcDbEntity
  8
0
  6
CONTINUOUS
 62
          15
100
AcDbLine
 10
-11.377830505371
 20
-35.184143066406
 30
0.0
 11
-12.723426818848
 21
-35.184143066406
 31
0.0
  0
LINE
  5
159
100
AcDbEntity
  8
0
  6
CONTINUOUS
 62
          15
100
AcDbLine
 10
-12.723426818848
 20
-35.184143066406
 30
0.0
 11
-12.723426818848
 21
-33.261054992676
 31
0.0
  0
LINE
  5
15A
100
AcDbEntity
  8
0
  6
CONTINUOUS
 62
          15
100
AcDbLine
 10
-12.723426818848
 20
-34.559143066406
 30
0.0
 11
-11.377830505371
 21
-34.559143066406
 31
0.0
  0
LINE
  5
15B
100
AcDbEntity
  8
0
  6
CONTINUOUS
 62
          15
100
AcDbLine
 10
-7.77025604248
 20
-33.261054992676
 30
0.0
 11
-6.424659729004
 21
-33.261054992676
 31
0.0
  0
LINE
  5
15C
100
AcDbEntity
  8
0
  6
CONTINUOUS
 62
          15
100
AcDbLine
 10
-6.424659729004
 20
-33.261054992676
 30
0.0
 11
-6.424659729004
 21
-35.184143066406
 31
0.0
  0
LINE
  5
15D
100
AcDbEntity
  8
0
  6
CONTINUOUS
 62
          15
100
AcDbLine
 10
-6.424659729004
 20
-35.184143066406
 30
0.0
 11
-7.77025604248
 21
-35.184143066406
 31
0.0
  0
LINE
  5
15E
100
AcDbEntity
  8
0
  6
CONTINUOUS
 62
          15
100
AcDbLine
 10
-7.77025604248
 20
-35.184143066406
 30
0.0
 11
-7.77025604248
 21
-33.261054992676
 31
0.0
  0
LINE
  5
15F
100
AcDbEntity
  8
0
  6
CONTINUOUS
 62
          15
100
AcDbLine
 10
-7.77025604248
 20
-34.559143066406
 30
0.0
 11
-6.424659729004
 21
-34.559143066406
 31
0.0
  0
LINE
  5
160
100
AcDbEntity
  8
0
  6
CONTINUOUS
 62
          15
100
AcDbLine
 10
-17.676597595215
 20
-33.261054992676
 30
0.0
 11
-16.331001281738
 21
-33.261054992676
 31
0.0
  0
LINE
  5
161
100
AcDbEntity
  8
0
  6
CONTINUOUS
 62
          15
100
AcDbLine
 10
-16.331001281738
 20
-33.261054992676
 30
0.0
 11
-16.331001281738
 21
-35.184143066406
 31
0.0
  0
LINE
  5
162
100
AcDbEntity
  8
0
  6
CONTINUOUS
 62
          15
100
AcDbLine
 10
-16.331001281738
 20
-35.184143066406
 30
0.0
 11
-17.676597595215
 21
-35.184143066406
 31
0.0
  0
LINE
  5
163
100
AcDbEntity
  8
0
  6
CONTINUOUS
 62
          15
100
AcDbLine
 10
-17.676597595215
 20
-35.184143066406
 30
0.0
 11
-17.676597595215
 21
-33.261054992676
 31
0.0
  0
LINE
  5
164
100
AcDbEntity
  8
0
  6
CONTINUOUS
 62
          15
100
AcDbLine
 10
-17.676597595215
 20
-34.559143066406
 30
0.0
 11
-16.331001281738
 21
-34.559143066406
 31
0.0
  0
LINE
  5
165
100
AcDbEntity
  8
0
  6
CONTINUOUS
 62
          15
100
AcDbLine
 10
-20.357135772705
 20
-33.261054992676
 30
0.0
 11
-19.011539459229
 21
-33.261054992676
 31
0.0
  0
LINE
  5
166
100
AcDbEntity
  8
0
  6
CONTINUOUS
 62
          15
100
AcDbLine
 10
-19.011539459229
 20
-33.261054992676
 30
0.0
 11
-19.011539459229
 21
-35.184143066406
 31
0.0
  0
LINE
  5
167
100
AcDbEntity
  8
0
  6
CONTINUOUS
 62
          15
100
AcDbLine
 10
-19.011539459229
 20
-35.184143066406
 30
0.0
 11
-20.357135772705
 21
-35.184143066406
 31
0.0
  0
LINE
  5
168
100
AcDbEntity
  8
0
  6
CONTINUOUS
 62
          15
100
AcDbLine
 10
-20.357135772705
 20
-35.184143066406
 30
0.0
 11
-20.357135772705
 21
-33.261054992676
 31
0.0
  0
LINE
  5
169
100
AcDbEntity
  8
0
  6
CONTINUOUS
 62
          15
100
AcDbLine
 10
-20.357135772705
 20
-34.559143066406
 30
0.0
 11
-19.011539459229
 21
-34.559143066406
 31
0.0
  0
LINE
  5
16A
100
AcDbEntity
  8
0
  6
CONTINUOUS
 62
          15
100
AcDbLine
 10
-15.403968811035
 20
-33.261054992676
 30
0.0
 11
-14.058372497559
 21
-33.261054992676
 31
0.0
  0
LINE
  5
16B
100
AcDbEntity
  8
0
  6
CONTINUOUS
 62
          15
100
AcDbLine
 10
-14.058372497559
 20
-33.261054992676
 30
0.0
 11
-14.058372497559
 21
-35.184143066406
 31
0.0
  0
LINE
  5
16C
100
AcDbEntity
  8
0
  6
CONTINUOUS
 62
          15
100
AcDbLine
 10
-14.058372497559
 20
-35.184143066406
 30
0.0
 11
-15.403968811035
 21
-35.184143066406
 31
0.0
  0
LINE
  5
16D
100
AcDbEntity
  8
0
  6
CONTINUOUS
 62
          15
100
AcDbLine
 10
-15.403968811035
 20
-35.184143066406
 30
0.0
 11
-15.403968811035
 21
-33.261054992676
 31
0.0
  0
LINE
  5
16E
100
AcDbEntity
  8
0
  6
CONTINUOUS
 62
          15
100
AcDbLine
 10
-15.403968811035
 20
-34.559143066406
 30
0.0
 11
-14.058372497559
 21
-34.559143066406
 31
0.0
  0
LINE
  5
16F
100
AcDbEntity
  8
0
  6
CONTINUOUS
 62
          15
100
AcDbLine
 10
-25.106349945068
 20
-33.261054992676
 30
0.0
 11
-23.760753631592
 21
-33.261054992676
 31
0.0
  0
LINE
  5
170
100
AcDbEntity
  8
0
  6
CONTINUOUS
 62
          15
100
AcDbLine
 10
-23.760753631592
 20
-33.261054992676
 30
0.0
 11
-23.760753631592
 21
-35.184143066406
 31
0.0
  0
LINE
  5
171
100
AcDbEntity
  8
0
  6
CONTINUOUS
 62
          15
100
AcDbLine
 10
-23.760753631592
 20
-35.184143066406
 30
0.0
 11
-25.106349945068
 21
-35.184143066406
 31
0.0
  0
LINE
  5
172
100
AcDbEntity
  8
0
  6
CONTINUOUS
 62
          15
100
AcDbLine
 10
-25.106349945068
 20
-35.184143066406
 30
0.0
 11
-25.106349945068
 21
-33.261054992676
 31
0.0
  0
LINE
  5
173
100
AcDbEntity
  8
0
  6
CONTINUOUS
 62
          15
100
AcDbLine
 10
-25.106349945068
 20
-34.559143066406
 30
0.0
 11
-23.760753631592
 21
-34.559143066406
 31
0.0
  0
LINE
  5
174
100
AcDbEntity
  8
0
  6
CONTINUOUS
 62
          15
100
AcDbLine
 10
-27.786891937256
 20
-33.261054992676
 30
0.0
 11
-26.441295623779
 21
-33.261054992676
 31
0.0
  0
LINE
  5
175
100
AcDbEntity
  8
0
  6
CONTINUOUS
 62
          15
100
AcDbLine
 10
-26.441295623779
 20
-33.261054992676
 30
0.0
 11
-26.441295623779
 21
-35.184143066406
 31
0.0
  0
LINE
  5
176
100
AcDbEntity
  8
0
  6
CONTINUOUS
 62
          15
100
AcDbLine
 10
-26.441295623779
 20
-35.184143066406
 30
0.0
 11
-27.786891937256
 21
-35.184143066406
 31
0.0
  0
LINE
  5
177
100
AcDbEntity
  8
0
  6
CONTINUOUS
 62
          15
100
AcDbLine
 10
-27.786891937256
 20
-35.184143066406
 30
0.0
 11
-27.786891937256
 21
-33.261054992676
 31
0.0
  0
LINE
  5
178
100
AcDbEntity
  8
0
  6
CONTINUOUS
 62
          15
100
AcDbLine
 10
-27.786891937256
 20
-34.559143066406
 30
0.0
 11
-26.441295623779
 21
-34.559143066406
 31
0.0
  0
LINE
  5
179
100
AcDbEntity
  8
0
  6
CONTINUOUS
 62
          15
100
AcDbLine
 10
-22.833721160889
 20
-33.261054992676
 30
0.0
 11
-21.488124847412
 21
-33.261054992676
 31
0.0
  0
LINE
  5
17A
100
AcDbEntity
  8
0
  6
CONTINUOUS
 62
          15
100
AcDbLine
 10
-21.488124847412
 20
-33.261054992676
 30
0.0
 11
-21.488124847412
 21
-35.184143066406
 31
0.0
  0
LINE
  5
17B
100
AcDbEntity
  8
0
  6
CONTINUOUS
 62
          15
100
AcDbLine
 10
-21.488124847412
 20
-35.184143066406
 30
0.0
 11
-22.833721160889
 21
-35.184143066406
 31
0.0
  0
LINE
  5
17C
100
AcDbEntity
  8
0
  6
CONTINUOUS
 62
          15
100
AcDbLine
 10
-22.833721160889
 20
-35.184143066406
 30
0.0
 11
-22.833721160889
 21
-33.261054992676
 31
0.0
  0
LINE
  5
17D
100
AcDbEntity
  8
0
  6
CONTINUOUS
 62
          15
100
AcDbLine
 10
-22.833721160889
 20
-34.559143066406
 30
0.0
 11
-21.488124847412
 21
-34.559143066406
 31
0.0
  0
LINE
  5
17E
100
AcDbEntity
  8
0
  6
CONTINUOUS
 62
          15
100
AcDbLine
 10
9.09366607666
 20
-27.225746154785
 30
0.0
 11
10.439262390137
 21
-27.225746154785
 31
0.0
  0
LINE
  5
17F
100
AcDbEntity
  8
0
  6
CONTINUOUS
 62
          15
100
AcDbLine
 10
10.439262390137
 20
-27.225746154785
 30
0.0
 11
10.439262390137
 21
-29.148834228516
 31
0.0
  0
LINE
  5
180
100
AcDbEntity
  8
0
  6
CONTINUOUS
 62
          15
100
AcDbLine
 10
10.439262390137
 20
-29.148834228516
 30
0.0
 11
9.09366607666
 21
-29.148834228516
 31
0.0
  0
LINE
  5
181
100
AcDbEntity
  8
0
  6
CONTINUOUS
 62
          15
100
AcDbLine
 10
9.09366607666
 20
-29.148834228516
 30
0.0
 11
9.09366607666
 21
-27.225746154785
 31
0.0
  0
LINE
  5
182
100
AcDbEntity
  8
0
  6
CONTINUOUS
 62
          15
100
AcDbLine
 10
9.09366607666
 20
-28.523834228516
 30
0.0
 11
10.439262390137
 21
-28.523834228516
 31
0.0
  0
LINE
  5
183
100
AcDbEntity
  8
0
  6
CONTINUOUS
 62
          15
100
AcDbLine
 10
6.413124084473
 20
-27.225746154785
 30
0.0
 11
7.758720397949
 21
-27.225746154785
 31
0.0
  0
LINE
  5
184
100
AcDbEntity
  8
0
  6
CONTINUOUS
 62
          15
100
AcDbLine
 10
7.758720397949
 20
-27.225746154785
 30
0.0
 11
7.758720397949
 21
-29.148834228516
 31
0.0
  0
LINE
  5
185
100
AcDbEntity
  8
0
  6
CONTINUOUS
 62
          15
100
AcDbLine
 10
7.758720397949
 20
-29.148834228516
 30
0.0
 11
6.413124084473
 21
-29.148834228516
 31
0.0
  0
LINE
  5
186
100
AcDbEntity
  8
0
  6
CONTINUOUS
 62
          15
100
AcDbLine
 10
6.413124084473
 20
-29.148834228516
 30
0.0
 11
6.413124084473
 21
-27.225746154785
 31
0.0
  0
LINE
  5
187
100
AcDbEntity
  8
0
  6
CONTINUOUS
 62
          15
100
AcDbLine
 10
6.413124084473
 20
-28.523834228516
 30
0.0
 11
7.758720397949
 21
-28.523834228516
 31
0.0
  0
LINE
  5
188
100
AcDbEntity
  8
0
  6
CONTINUOUS
 62
          15
100
AcDbLine
 10
11.541114807129
 20
-27.225746154785
 30
0.0
 11
12.886711120605
 21
-27.225746154785
 31
0.0
  0
LINE
  5
189
100
AcDbEntity
  8
0
  6
CONTINUOUS
 62
          15
100
AcDbLine
 10
12.886711120605
 20
-27.225746154785
 30
0.0
 11
12.886711120605
 21
-29.148834228516
 31
0.0
  0
LINE
  5
18A
100
AcDbEntity
  8
0
  6
CONTINUOUS
 62
          15
100
AcDbLine
 10
12.886711120605
 20
-29.148834228516
 30
0.0
 11
11.541114807129
 21
-29.148834228516
 31
0.0
  0
LINE
  5
18B
100
AcDbEntity
  8
0
  6
CONTINUOUS
 62
          15
100
AcDbLine
 10
11.541114807129
 20
-29.148834228516
 30
0.0
 11
11.541114807129
 21
-27.225746154785
 31
0.0
  0
LINE
  5
18C
100
AcDbEntity
  8
0
  6
CONTINUOUS
 62
          15
100
AcDbLine
 10
11.541114807129
 20
-28.523834228516
 30
0.0
 11
12.886711120605
 21
-28.523834228516
 31
0.0
  0
ENDBLK
  5
18D
100
AcDbEntity
  8
0
  6
BYBLOCK
 62
           0
100
AcDbBlockEnd
  0
BLOCK
  5
18E
100
AcDbEntity
  8
0
100
AcDbBlockBegin
  2
SDXPIC1_3
 70
          64
 10
0.0
 20
0.0
 30
0.0
  3
SDXPIC1_3
  1

  0
LINE
  5
18F
100
AcDbEntity
  8
0
  6
CONTINUOUS
 62
          15
100
AcDbLine
 10
-54.900009155273
 20
8.0
 30
0.0
 11
-54.900009155273
 21
91.400024414063
 31
0.0
  0
LINE
  5
190
100
AcDbEntity
  8
0
  6
CONTINUOUS
 62
          15
100
AcDbLine
 10
54.900024414063
 20
8.0
 30
0.0
 11
54.900024414063
 21
91.400024414063
 31
0.0
  0
LINE
  5
191
100
AcDbEntity
  8
0
  6
CONTINUOUS
 62
          15
100
AcDbLine
 10
-54.900009155273
 20
8.0
 30
0.0
 11
54.900024414063
 21
8.0
 31
0.0
  0
LINE
  5
192
100
AcDbEntity
  8
0
  6
CONTINUOUS
 62
          15
100
AcDbLine
 10
-54.900009155273
 20
91.400024414063
 30
0.0
 11
54.900024414063
 21
91.400024414063
 31
0.0
  0
LINE
  5
193
100
AcDbEntity
  8
0
  6
CONTINUOUS
 62
          15
100
AcDbLine
 10
-60.900009155273
 20
2.0
 30
0.0
 11
-60.900009155273
 21
97.400024414063
 31
0.0
  0
LINE
  5
194
100
AcDbEntity
  8
0
  6
CONTINUOUS
 62
          15
100
AcDbLine
 10
60.900024414063
 20
2.0
 30
0.0
 11
60.900024414063
 21
97.400024414063
 31
0.0
  0
LINE
  5
195
100
AcDbEntity
  8
0
  6
CONTINUOUS
 62
          15
100
AcDbLine
 10
-62.900009155273
 20
0.0
 30
0.0
 11
-62.900009155273
 21
99.400024414063
 31
0.0
  0
LINE
  5
196
100
AcDbEntity
  8
0
  6
CONTINUOUS
 62
          15
100
AcDbLine
 10
62.900024414063
 20
0.0
 30
0.0
 11
62.900024414063
 21
99.400024414063
 31
0.0
  0
LINE
  5
197
100
AcDbEntity
  8
0
  6
CONTINUOUS
 62
          15
100
AcDbLine
 10
-62.900009155273
 20
99.400024414063
 30
0.0
 11
62.900024414063
 21
99.400024414063
 31
0.0
  0
LINE
  5
198
100
AcDbEntity
  8
0
  6
CONTINUOUS
 62
          15
100
AcDbLine
 10
-62.900009155273
 20
0.0
 30
0.0
 11
62.900024414063
 21
0.0
 31
0.0
  0
LINE
  5
199
100
AcDbEntity
  8
0
  6
CONTINUOUS
 62
          15
100
AcDbLine
 10
-60.900009155273
 20
97.400024414063
 30
0.0
 11
60.900024414063
 21
97.400024414063
 31
0.0
  0
LINE
  5
19A
100
AcDbEntity
  8
0
  6
CONTINUOUS
 62
          15
100
AcDbLine
 10
-60.900009155273
 20
2.0
 30
0.0
 11
60.900024414063
 21
2.0
 31
0.0
  0
ELLIPSE
  5
19B
100
AcDbEntity
  8
0
  6
CONTINUOUS
 62
          15
100
AcDbEllipse
 10
25.460205078125
 20
23.210540771484
 30
0.0
 11
0.0000000000000001
 21
0.9874100685119628
 31
0.0
210
0.0
220
0.0
230
1.0
 40
1.0
 41
-3.9413493434574889
 42
-0.5434671203282235
  0
ELLIPSE
  5
19C
100
AcDbEntity
  8
0
  6
CONTINUOUS
 62
          15
100
AcDbEllipse
 10
25.855163574219
 20
26.271514892578
 30
0.0
 11
0.0000000000000001
 21
0.9874100685119628
 31
0.0
210
0.0
220
0.0
230
1.0
 40
1.0
 41
-0.7111038724568175
 42
-3.6850598613407928
  0
ELLIPSE
  5
19D
100
AcDbEntity
  8
0
  6
CONTINUOUS
 62
          15
100
AcDbEllipse
 10
25.657684326172
 20
23.506744384766
 30
0.0
 11
0.0000000000000001
 21
1.4811151027679443
 31
0.0
210
0.0
220
0.0
230
1.0
 40
1.0
 41
-3.7608655254032968
 42
-0.5434672395375093
  0
ELLIPSE
  5
19E
100
AcDbEntity
  8
0
  6
CONTINUOUS
 62
          15
100
AcDbEllipse
 10
25.657684326172
 20
25.975280761719
 30
0.0
 11
0.0000000000000001
 21
1.4811151027679443
 31
0.0
210
0.0
220
0.0
230
1.0
 40
1.0
 41
-0.6732547442105151
 42
-3.6850598613407959
  0
LINE
  5
19F
100
AcDbEntity
  8
0
  6
CONTINUOUS
 62
          15
100
AcDbLine
 10
24.176574707031
 20
22.025634765625
 30
0.0
 11
24.176574707031
 21
23.013061523438
 31
0.0
  0
LINE
  5
1A0
100
AcDbEntity
  8
0
  6
CONTINUOUS
 62
          15
100
AcDbLine
 10
27.138793945313
 20
26.468994140625
 30
0.0
 11
27.138793945313
 21
27.456390380859
 31
0.0
  0
LINE
  5
1A1
100
AcDbEntity
  8
0
  6
CONTINUOUS
 62
          15
100
AcDbLine
 10
24.176574707031
 20
22.025634765625
 30
0.0
 11
24.275360107422
 21
22.025634765625
 31
0.0
  0
LINE
  5
1A2
100
AcDbEntity
  8
0
  6
CONTINUOUS
 62
          15
100
AcDbLine
 10
27.035369873047
 20
27.456390380859
 30
0.0
 11
27.138793945313
 21
27.456390380859
 31
0.0
  0
LINE
  5
1A3
100
AcDbEntity
  8
0
  6
CONTINUOUS
 62
          15
100
AcDbLine
 10
27.138793945313
 20
26.468994140625
 30
0.0
 11
26.499603271484
 21
27.019622802734
 31
0.0
  0
LINE
  5
1A4
100
AcDbEntity
  8
0
  6
CONTINUOUS
 62
          15
100
AcDbLine
 10
24.176574707031
 20
23.114654541016
 30
0.0
 11
24.752044677734
 21
22.522399902344
 31
0.0
  0
LINE
  5
1A5
100
AcDbEntity
  8
0
  6
CONTINUOUS
 62
          15
100
AcDbLine
 10
24.176574707031
 20
23.114654541016
 30
0.0
 11
24.176574707031
 21
22.025634765625
 31
0.0
  0
ELLIPSE
  5
1A6
100
AcDbEntity
  8
0
  6
CONTINUOUS
 62
          15
100
AcDbEllipse
 10
24.606079101563
 20
22.031463623047
 30
0.0
 11
0.0
 21
0.3307765424251556
 31
0.0
210
0.0
220
0.0
230
1.0
 40
1.0
 41
-0.6192729035999943
 42
-4.6947491923955029
  0
ELLIPSE
  5
1A7
100
AcDbEntity
  8
0
  6
CONTINUOUS
 62
          15
100
AcDbEllipse
 10
26.731353759766
 20
27.402893066406
 30
0.0
 11
0.0
 21
0.3086785078048706
 31
0.0
210
0.0
220
0.0
230
1.0
 40
1.0
 41
-3.9231937686589569
 42
-1.3966061482814114
  0
LINE
  5
1A8
100
AcDbEntity
  8
0
  6
CONTINUOUS
 62
          15
100
AcDbLine
 10
25.344543457031
 20
25.426361083984
 30
0.0
 11
26.423583984375
 21
24.774444580078
 31
0.0
  0
LINE
  5
1A9
100
AcDbEntity
  8
0
  6
CONTINUOUS
 62
          15
100
AcDbLine
 10
24.891784667969
 20
24.707550048828
 30
0.0
 11
25.970794677734
 21
24.0556640625
 31
0.0
  0
LINE
  5
1AA
100
AcDbEntity
  8
0
  6
CONTINUOUS
 62
          15
100
AcDbLine
 10
28.521179199219
 20
22.519348144531
 30
0.0
 11
28.521179199219
 21
26.962707519531
 31
0.0
  0
LINE
  5
1AB
100
AcDbEntity
  8
0
  6
CONTINUOUS
 62
          15
100
AcDbLine
 10
31.878356933594
 20
24.000457763672
 30
0.0
 11
31.878356933594
 21
25.481567382813
 31
0.0
  0
LINE
  5
1AC
100
AcDbEntity
  8
0
  6
CONTINUOUS
 62
          15
100
AcDbLine
 10
28.126190185547
 20
27.456390380859
 30
0.0
 11
29.903533935547
 21
27.456390380859
 31
0.0
  0
LINE
  5
1AD
100
AcDbEntity
  8
0
  6
CONTINUOUS
 62
          15
100
AcDbLine
 10
28.126190185547
 20
22.025634765625
 30
0.0
 11
29.903533935547
 21
22.025634765625
 31
0.0
  0
LINE
  5
1AE
100
AcDbEntity
  8
0
  6
CONTINUOUS
 62
          15
100
AcDbLine
 10
31.088439941406
 20
25.679046630859
 30
0.0
 11
31.088439941406
 21
23.802978515625
 31
0.0
  0
LINE
  5
1AF
100
AcDbEntity
  8
0
  6
CONTINUOUS
 62
          15
100
AcDbLine
 10
28.718658447266
 20
26.666473388672
 30
0.0
 11
28.718658447266
 21
22.815582275391
 31
0.0
  0
LINE
  5
1B0
100
AcDbEntity
  8
0
  6
CONTINUOUS
 62
          15
100
AcDbLine
 10
28.126190185547
 20
27.357666015625
 30
0.0
 11
28.126190185547
 21
27.456390380859
 31
0.0
  0
LINE
  5
1B1
100
AcDbEntity
  8
0
  6
CONTINUOUS
 62
          15
100
AcDbLine
 10
28.126190185547
 20
22.025634765625
 30
0.0
 11
28.126190185547
 21
22.124389648438
 31
0.0
  0
ELLIPSE
  5
1B2
100
AcDbEntity
  8
0
  6
CONTINUOUS
 62
          15
100
AcDbEllipse
 10
29.903533935547
 20
25.481567382813
 30
0.0
 11
0.0000000000000001
 21
1.9748201370239256
 31
0.0
210
0.0
220
0.0
230
1.0
 40
1.0
 41
-1.5707963267948966
 42
0.0000000437113894
  0
ELLIPSE
  5
1B3
100
AcDbEntity
  8
0
  6
CONTINUOUS
 62
          15
100
AcDbEllipse
 10
29.903533935547
 20
24.000457763672
 30
0.0
 11
0.0000000000000001
 21
1.9748201370239256
 31
0.0
210
0.0
220
0.0
230
1.0
 40
1.0
 41
-3.1415926973011823
 42
-1.5707963267948966
  0
ELLIPSE
  5
1B4
100
AcDbEntity
  8
0
  6
CONTINUOUS
 62
          15
100
AcDbEllipse
 10
28.126190185547
 20
26.962707519531
 30
0.0
 11
0.0
 21
0.3949640393257141
 31
0.0
210
0.0
220
0.0
230
1.0
 40
1.0
 41
-1.5707963267948966
 42
0.0000000437113881
  0
ELLIPSE
  5
1B5
100
AcDbEntity
  8
0
  6
CONTINUOUS
 62
          15
100
AcDbEllipse
 10
28.126190185547
 20
22.519348144531
 30
0.0
 11
0.0
 21
0.3949640393257141
 31
0.0
210
0.0
220
0.0
230
1.0
 40
1.0
 41
-3.1415926973011814
 42
-1.5707963267948966
  0
LINE
  5
1B6
100
AcDbEntity
  8
0
  6
CONTINUOUS
 62
          15
100
AcDbLine
 10
32.470794677734
 20
22.025634765625
 30
0.0
 11
33.556945800781
 21
22.025634765625
 31
0.0
  0
LINE
  5
1B7
100
AcDbEntity
  8
0
  6
CONTINUOUS
 62
          15
100
AcDbLine
 10
36.420440673828
 20
27.456390380859
 30
0.0
 11
37.506591796875
 21
27.456390380859
 31
0.0
  0
LINE
  5
1B8
100
AcDbEntity
  8
0
  6
CONTINUOUS
 62
          15
100
AcDbLine
 10
36.420440673828
 20
27.155334472656
 30
0.0
 11
36.420440673828
 21
27.456390380859
 31
0.0
  0
LINE
  5
1B9
100
AcDbEntity
  8
0
  6
CONTINUOUS
 62
          15
100
AcDbLine
 10
37.506591796875
 20
27.160186767578
 30
0.0
 11
37.506591796875
 21
27.456390380859
 31
0.0
  0
LINE
  5
1BA
100
AcDbEntity
  8
0
  6
CONTINUOUS
 62
          15
100
AcDbLine
 10
37.506591796875
 20
22.025634765625
 30
0.0
 11
37.506591796875
 21
22.321868896484
 31
0.0
  0
LINE
  5
1BB
100
AcDbEntity
  8
0
  6
CONTINUOUS
 62
          15
100
AcDbLine
 10
36.124237060547
 20
22.025634765625
 30
0.0
 11
36.124237060547
 21
22.321868896484
 31
0.0
  0
LINE
  5
1BC
100
AcDbEntity
  8
0
  6
CONTINUOUS
 62
          15
100
AcDbLine
 10
33.556945800781
 20
22.025634765625
 30
0.0
 11
33.556945800781
 21
22.326690673828
 31
0.0
  0
LINE
  5
1BD
100
AcDbEntity
  8
0
  6
CONTINUOUS
 62
          15
100
AcDbLine
 10
32.470794677734
 20
27.456390380859
 30
0.0
 11
33.853179931641
 21
27.456390380859
 31
0.0
  0
LINE
  5
1BE
100
AcDbEntity
  8
0
  6
CONTINUOUS
 62
          15
100
AcDbLine
 10
36.124237060547
 20
22.025634765625
 30
0.0
 11
37.506591796875
 21
22.025634765625
 31
0.0
  0
LINE
  5
1BF
100
AcDbEntity
  8
0
  6
CONTINUOUS
 62
          15
100
AcDbLine
 10
37.339691162109
 20
27.160186767578
 30
0.0
 11
37.506591796875
 21
27.160186767578
 31
0.0
  0
LINE
  5
1C0
100
AcDbEntity
  8
0
  6
CONTINUOUS
 62
          15
100
AcDbLine
 10
32.470794677734
 20
27.160186767578
 30
0.0
 11
32.628173828125
 21
27.160186767578
 31
0.0
  0
LINE
  5
1C1
100
AcDbEntity
  8
0
  6
CONTINUOUS
 62
          15
100
AcDbLine
 10
37.349212646484
 20
22.321868896484
 30
0.0
 11
37.506591796875
 21
22.321868896484
 31
0.0
  0
LINE
  5
1C2
100
AcDbEntity
  8
0
  6
CONTINUOUS
 62
          15
100
AcDbLine
 10
32.470794677734
 20
22.025634765625
 30
0.0
 11
32.470794677734
 21
22.321868896484
 31
0.0
  0
ELLIPSE
  5
1C3
100
AcDbEntity
  8
0
  6
CONTINUOUS
 62
          15
100
AcDbEllipse
 10
37.339691162109
 20
26.765197753906
 30
0.0
 11
0.0
 21
0.3949640393257141
 31
0.0
210
0.0
220
0.0
230
1.0
 40
1.0
 41
0.0000000437113881
 42
0.942000075182639
  0
ELLIPSE
  5
1C4
100
AcDbEntity
  8
0
  6
CONTINUOUS
 62
          15
100
AcDbEllipse
 10
37.349212646484
 20
22.716827392578
 30
0.0
 11
0.0
 21
0.3949640393257141
 31
0.0
210
0.0
220
0.0
230
1.0
 40
1.0
 41
-4.1216207305577051
 42
-3.1415926973011814
  0
ELLIPSE
  5
1C5
100
AcDbEntity
  8
0
  6
CONTINUOUS
 62
          15
100
AcDbEllipse
 10
32.6376953125
 20
22.716827392578
 30
0.0
 11
0.0
 21
0.3949640393257141
 31
0.0
210
0.0
220
0.0
230
1.0
 40
1.0
 41
-3.1415926973011814
 42
-2.1995926062252584
  0
ELLIPSE
  5
1C6
100
AcDbEntity
  8
0
  6
CONTINUOUS
 62
          15
100
AcDbEllipse
 10
36.450927734375
 20
27.061431884766
 30
0.0
 11
0.0
 21
0.0987410098314285
 31
0.0
210
0.0
220
0.0
230
1.0
 40
1.0
 41
-2.19959260622529
 42
0.3140993555399898
  0
ELLIPSE
  5
1C7
100
AcDbEntity
  8
0
  6
CONTINUOUS
 62
          15
100
AcDbEllipse
 10
33.526428222656
 20
22.420593261719
 30
0.0
 11
0.0
 21
0.0987410098314285
 31
0.0
210
0.0
220
0.0
230
1.0
 40
1.0
 41
0.9420000751826811
 42
-2.8274933854724242
  0
ELLIPSE
  5
1C8
100
AcDbEntity
  8
0
  6
CONTINUOUS
 62
          15
100
AcDbEllipse
 10
36.163513183594
 20
22.420593261719
 30
0.0
 11
0.0
 21
0.0987410098314285
 31
0.0
210
0.0
220
0.0
230
1.0
 40
1.0
 41
-3.5509062568332359
 42
-0.9800279895452346
  0
LINE
  5
1C9
100
AcDbEntity
  8
0
  6
CONTINUOUS
 62
          15
100
AcDbLine
 10
32.470794677734
 20
22.321868896484
 30
0.0
 11
32.6376953125
 21
22.321868896484
 31
0.0
  0
LINE
  5
1CA
100
AcDbEntity
  8
0
  6
CONTINUOUS
 62
          15
100
AcDbLine
 10
38.790222167969
 20
24.346069335938
 30
0.0
 11
40.962524414063
 21
24.346069335938
 31
0.0
  0
LINE
  5
1CB
100
AcDbEntity
  8
0
  6
CONTINUOUS
 62
          15
100
AcDbLine
 10
38.790222167969
 20
25.135986328125
 30
0.0
 11
40.962524414063
 21
25.135986328125
 31
0.0
  0
LINE
  5
1CC
100
AcDbEntity
  8
0
  6
CONTINUOUS
 62
          15
100
AcDbLine
 10
43.332305908203
 20
22.618103027344
 30
0.0
 11
43.332305908203
 21
26.376495361328
 31
0.0
  0
LINE
  5
1CD
100
AcDbEntity
  8
0
  6
CONTINUOUS
 62
          15
100
AcDbLine
 10
44.122222900391
 20
22.618103027344
 30
0.0
 11
44.122222900391
 21
27.456390380859
 31
0.0
  0
LINE
  5
1CE
100
AcDbEntity
  8
0
  6
CONTINUOUS
 62
          15
100
AcDbLine
 10
43.727264404297
 20
27.456390380859
 30
0.0
 11
44.122222900391
 21
27.456390380859
 31
0.0
  0
LINE
  5
1CF
100
AcDbEntity
  8
0
  6
CONTINUOUS
 62
          15
100
AcDbLine
 10
42.739868164063
 20
26.468994140625
 30
0.0
 11
42.739868164063
 21
26.666473388672
 31
0.0
  0
LINE
  5
1D0
100
AcDbEntity
  8
0
  6
CONTINUOUS
 62
          15
100
AcDbLine
 10
44.517211914063
 20
22.025634765625
 30
0.0
 11
44.517211914063
 21
22.223114013672
 31
0.0
  0
LINE
  5
1D1
100
AcDbEntity
  8
0
  6
CONTINUOUS
 62
          15
100
AcDbLine
 10
42.937347412109
 20
22.025634765625
 30
0.0
 11
42.937347412109
 21
22.223114013672
 31
0.0
  0
LINE
  5
1D2
100
AcDbEntity
  8
0
  6
CONTINUOUS
 62
          15
100
AcDbLine
 10
42.937347412109
 20
22.025634765625
 30
0.0
 11
44.517211914063
 21
22.025634765625
 31
0.0
  0
LINE
  5
1D3
100
AcDbEntity
  8
0
  6
CONTINUOUS
 62
          15
100
AcDbLine
 10
43.727264404297
 20
27.456390380859
 30
0.0
 11
42.739868164063
 21
26.666473388672
 31
0.0
  0
LINE
  5
1D4
100
AcDbEntity
  8
0
  6
CONTINUOUS
 62
          15
100
AcDbLine
 10
42.739868164063
 20
26.468994140625
 30
0.0
 11
42.937347412109
 21
26.468994140625
 31
0.0
  0
ELLIPSE
  5
1D5
100
AcDbEntity
  8
0
  6
CONTINUOUS
 62
          15
100
AcDbEllipse
 10
42.937347412109
 20
22.618103027344
 30
0.0
 11
0.0
 21
0.3949640393257141
 31
0.0
210
0.0
220
0.0
230
1.0
 40
1.0
 41
-3.1415926973011814
 42
-1.5707963267948966
  0
ELLIPSE
  5
1D6
100
AcDbEntity
  8
0
  6
CONTINUOUS
 62
          15
100
AcDbEllipse
 10
44.517211914063
 20
22.618103027344
 30
0.0
 11
0.0
 21
0.3949640393257141
 31
0.0
210
0.0
220
0.0
230
1.0
 40
1.0
 41
-4.7123888293889227
 42
-3.1415926973011814
  0
LINE
  5
1D7
100
AcDbEntity
  8
0
  6
CONTINUOUS
 62
          15
100
AcDbLine
 10
42.937347412109
 20
26.468994140625
 30
0.0
 11
43.008392333984
 21
26.528198242188
 31
0.0
  0
ELLIPSE
  5
1D8
100
AcDbEntity
  8
0
  6
CONTINUOUS
 62
          15
100
AcDbEllipse
 10
43.134826660156
 20
26.376495361328
 30
0.0
 11
0.0
 21
0.1974820196628571
 31
0.0
210
0.0
220
0.0
230
1.0
 40
1.0
 41
-1.5707963267948966
 42
0.6947383125635489
  0
LINE
  5
1D9
100
AcDbEntity
  8
0
  6
CONTINUOUS
 62
          15
100
AcDbLine
 10
46.294525146484
 20
27.456390380859
 30
0.0
 11
48.86181640625
 21
27.456390380859
 31
0.0
  0
LINE
  5
1DA
100
AcDbEntity
  8
0
  6
CONTINUOUS
 62
          15
100
AcDbLine
 10
46.325714111328
 20
26.666473388672
 30
0.0
 11
48.679016113281
 21
26.666473388672
 31
0.0
  0
LINE
  5
1DB
100
AcDbEntity
  8
0
  6
CONTINUOUS
 62
          15
100
AcDbLine
 10
46.294525146484
 20
27.456390380859
 30
0.0
 11
45.756774902344
 21
24.901947021484
 31
0.0
  0
LINE
  5
1DC
100
AcDbEntity
  8
0
  6
CONTINUOUS
 62
          15
100
AcDbLine
 10
46.325714111328
 20
26.666473388672
 30
0.0
 11
46.057159423828
 21
25.390777587891
 31
0.0
  0
LINE
  5
1DD
100
AcDbEntity
  8
0
  6
CONTINUOUS
 62
          15
100
AcDbLine
 10
45.756072998047
 20
22.743621826172
 30
0.0
 11
45.826690673828
 21
22.847320556641
 31
0.0
  0
LINE
  5
1DE
100
AcDbEntity
  8
0
  6
CONTINUOUS
 62
          15
100
AcDbLine
 10
48.86181640625
 20
27.456390380859
 30
0.0
 11
48.679016113281
 21
26.666473388672
 31
0.0
  0
ELLIPSE
  5
1DF
100
AcDbEntity
  8
0
  6
CONTINUOUS
 62
          15
100
AcDbEllipse
 10
47.183197021484
 20
23.802978515625
 30
0.0
 11
0.0000000000000001
 21
1.7773381471633909
 31
0.0
210
0.0
220
0.0
230
1.0
 40
1.0
 41
-4.0738361636784397
 42
0.1968212564799436
  0
ELLIPSE
  5
1E0
100
AcDbEntity
  8
0
  6
CONTINUOUS
 62
          15
100
AcDbEllipse
 10
46.904235839844
 20
23.713287353516
 30
0.0
 11
0.0000000000000001
 21
1.3823740482330322
 31
0.0
210
0.0
220
0.0
230
1.0
 40
1.0
 41
-4.035434559979711
 42
0.1881961067530784
  0
LINE
  5
1E1
100
AcDbEntity
  8
0
  6
CONTINUOUS
 62
          15
100
AcDbLine
 10
46.057159423828
 20
25.390777587891
 30
0.0
 11
46.835632324219
 21
25.545989990234
 31
0.0
  0
LINE
  5
1E2
100
AcDbEntity
  8
0
  6
CONTINUOUS
 62
          15
100
AcDbLine
 10
45.756774902344
 20
24.901947021484
 30
0.0
 11
46.645599365234
 21
25.071228027344
 31
0.0
  0
ELLIPSE
  5
1E3
100
AcDbEntity
  8
0
  6
CONTINUOUS
 62
          15
100
AcDbEllipse
 10
38.790222167969
 20
24.741027832031
 30
0.0
 11
0.0
 21
0.3949640393257141
 31
0.0
210
0.0
220
0.0
230
1.0
 40
1.0
 41
0.0000000437113881
 42
-3.1415926973011814
  0
ELLIPSE
  5
1E4
100
AcDbEntity
  8
0
  6
CONTINUOUS
 62
          15
100
AcDbEllipse
 10
40.962524414063
 20
24.741027832031
 30
0.0
 11
0.0
 21
0.3949640393257141
 31
0.0
210
0.0
220
0.0
230
1.0
 40
1.0
 41
-3.1415926973011814
 42
0.0000000437113881
  0
LINE
  5
1E5
100
AcDbEntity
  8
0
  6
CONTINUOUS
 62
          15
100
AcDbLine
 10
29.311096191406
 20
27.258911132813
 30
0.0
 11
29.508575439453
 21
27.258911132813
 31
0.0
  0
LINE
  5
1E6
100
AcDbEntity
  8
0
  6
CONTINUOUS
 62
          15
100
AcDbLine
 10
29.311096191406
 20
22.223114013672
 30
0.0
 11
29.508575439453
 21
22.223114013672
 31
0.0
  0
ELLIPSE
  5
1E7
100
AcDbEntity
  8
0
  6
CONTINUOUS
 62
          15
100
AcDbEllipse
 10
29.311096191406
 20
22.815582275391
 30
0.0
 11
0.0
 21
0.5924460291862488
 31
0.0
210
0.0
220
0.0
230
1.0
 40
1.0
 41
-4.7123888293888667
 42
-3.0147530595448355
  0
ELLIPSE
  5
1E8
100
AcDbEntity
  8
0
  6
CONTINUOUS
 62
          15
100
AcDbEllipse
 10
29.311096191406
 20
26.666473388672
 30
0.0
 11
0.0
 21
0.5924460291862488
 31
0.0
210
0.0
220
0.0
230
1.0
 40
1.0
 41
0.0000000437113901
 42
-4.7123888293888667
  0
ELLIPSE
  5
1E9
100
AcDbEntity
  8
0
  6
CONTINUOUS
 62
          15
100
AcDbEllipse
 10
29.508575439453
 20
25.679046630859
 30
0.0
 11
0.0000000000000001
 21
1.5798561573028564
 31
0.0
210
0.0
220
0.0
230
1.0
 40
1.0
 41
-1.5707963267948966
 42
0.0000000437113881
  0
ELLIPSE
  5
1EA
100
AcDbEntity
  8
0
  6
CONTINUOUS
 62
          15
100
AcDbEllipse
 10
29.508575439453
 20
23.802978515625
 30
0.0
 11
0.0000000000000001
 21
1.5798561573028564
 31
0.0
210
0.0
220
0.0
230
1.0
 40
1.0
 41
-3.1415926973011814
 42
-1.5707963267948966
  0
LINE
  5
1EB
100
AcDbEntity
  8
0
  6
CONTINUOUS
 62
          15
100
AcDbLine
 10
32.470794677734
 20
27.160186767578
 30
0.0
 11
32.470794677734
 21
27.456390380859
 31
0.0
  0
LINE
  5
1EC
100
AcDbEntity
  8
0
  6
CONTINUOUS
 62
          15
100
AcDbLine
 10
33.853179931641
 20
27.160186767578
 30
0.0
 11
33.853179931641
 21
27.456390380859
 31
0.0
  0
LINE
  5
1ED
100
AcDbEntity
  8
0
  6
CONTINUOUS
 62
          15
100
AcDbLine
 10
33.813873291016
 20
27.160186767578
 30
0.0
 11
33.853179931641
 21
27.160186767578
 31
0.0
  0
ELLIPSE
  5
1EE
100
AcDbEntity
  8
0
  6
CONTINUOUS
 62
          15
100
AcDbEllipse
 10
32.628173828125
 20
26.765197753906
 30
0.0
 11
0.0
 21
0.3949640393257141
 31
0.0
210
0.0
220
0.0
230
1.0
 40
1.0
 41
-0.9800280491498129
 42
0.0000000437113881
  0
ELLIPSE
  5
1EF
100
AcDbEntity
  8
0
  6
CONTINUOUS
 62
          15
100
AcDbEllipse
 10
33.813873291016
 20
27.061431884766
 30
0.0
 11
0.0
 21
0.0987410098314285
 31
0.0
210
0.0
220
0.0
230
1.0
 40
1.0
 41
0.0000000437115319
 42
-4.1216207305576251
  0
LINE
  5
1F0
100
AcDbEntity
  8
0
  6
CONTINUOUS
 62
          15
100
AcDbLine
 10
32.956176757813
 20
26.985198974609
 30
0.0
 11
34.664794921875
 21
24.635070800781
 31
0.0
  0
LINE
  5
1F1
100
AcDbEntity
  8
0
  6
CONTINUOUS
 62
          15
100
AcDbLine
 10
34.664794921875
 20
24.635070800781
 30
0.0
 11
32.957122802734
 21
22.484527587891
 31
0.0
  0
LINE
  5
1F2
100
AcDbEntity
  8
0
  6
CONTINUOUS
 62
          15
100
AcDbLine
 10
33.446594238281
 20
22.478668212891
 30
0.0
 11
34.901641845703
 21
24.281890869141
 31
0.0
  0
LINE
  5
1F3
100
AcDbEntity
  8
0
  6
CONTINUOUS
 62
          15
100
AcDbLine
 10
34.901641845703
 20
24.281890869141
 30
0.0
 11
36.245513916016
 21
22.4755859375
 31
0.0
  0
LINE
  5
1F4
100
AcDbEntity
  8
0
  6
CONTINUOUS
 62
          15
100
AcDbLine
 10
37.021209716797
 20
22.496826171875
 30
0.0
 11
35.312591552734
 21
24.846954345703
 31
0.0
  0
LINE
  5
1F5
100
AcDbEntity
  8
0
  6
CONTINUOUS
 62
          15
100
AcDbLine
 10
35.312591552734
 20
24.846954345703
 30
0.0
 11
37.020263671875
 21
26.997497558594
 31
0.0
  0
LINE
  5
1F6
100
AcDbEntity
  8
0
  6
CONTINUOUS
 62
          15
100
AcDbLine
 10
36.530792236328
 20
27.003326416016
 30
0.0
 11
35.075744628906
 21
25.200134277344
 31
0.0
  0
LINE
  5
1F7
100
AcDbEntity
  8
0
  6
CONTINUOUS
 62
          15
100
AcDbLine
 10
35.075744628906
 20
25.200134277344
 30
0.0
 11
33.731872558594
 21
27.006408691406
 31
0.0
  0
LINE
  5
1F8
100
AcDbEntity
  8
0
  6
CONTINUOUS
 62
          15
100
AcDbLine
 10
-11.019500732422
 20
32.84326171875
 30
0.0
 11
50.160430908203
 21
32.84326171875
 31
0.0
  0
LINE
  5
1F9
100
AcDbEntity
  8
0
  6
CONTINUOUS
 62
          15
100
AcDbLine
 10
-12.994323730469
 20
34.818054199219
 30
0.0
 11
50.160430908203
 21
34.818054199219
 31
0.0
  0
LINE
  5
1FA
100
AcDbEntity
  8
0
  6
CONTINUOUS
 62
          15
100
AcDbLine
 10
-14.969146728516
 20
36.792877197266
 30
0.0
 11
50.160430908203
 21
36.792877197266
 31
0.0
  0
LINE
  5
1FB
100
AcDbEntity
  8
0
  6
CONTINUOUS
 62
          15
100
AcDbLine
 10
-16.943954467773
 20
38.767700195313
 30
0.0
 11
50.160430908203
 21
38.767700195313
 31
0.0
  0
LINE
  5
1FC
100
AcDbEntity
  8
0
  6
CONTINUOUS
 62
          15
100
AcDbLine
 10
-49.757568359375
 20
40.742523193359
 30
0.0
 11
49.757568359375
 21
40.742523193359
 31
0.0
  0
LINE
  5
1FD
100
AcDbEntity
  8
0
  6
CONTINUOUS
 62
          15
100
AcDbLine
 10
-47.558319091797
 20
42.717346191406
 30
0.0
 11
47.558319091797
 21
42.717346191406
 31
0.0
  0
LINE
  5
1FE
100
AcDbEntity
  8
0
  6
CONTINUOUS
 62
          15
100
AcDbLine
 10
-47.848358154297
 20
12.376220703125
 30
0.0
 11
47.848358154297
 21
12.376220703125
 31
0.0
  0
LINE
  5
1FF
100
AcDbEntity
  8
0
  6
CONTINUOUS
 62
          15
100
AcDbLine
 10
-49.813201904297
 20
14.351043701172
 30
0.0
 11
49.813201904297
 21
14.351043701172
 31
0.0
  0
LINE
  5
200
100
AcDbEntity
  8
0
  6
CONTINUOUS
 62
          15
100
AcDbLine
 10
-50.160446166992
 20
16.325866699219
 30
0.0
 11
50.160430908203
 21
16.325866699219
 31
0.0
  0
LINE
  5
201
100
AcDbEntity
  8
0
  6
CONTINUOUS
 62
          15
100
AcDbLine
 10
-50.160446166992
 20
18.300689697266
 30
0.0
 11
-12.994323730469
 21
18.300689697266
 31
0.0
  0
LINE
  5
202
100
AcDbEntity
  8
0
  6
CONTINUOUS
 62
          15
100
AcDbLine
 10
-50.160446166992
 20
20.275482177734
 30
0.0
 11
-14.969146728516
 21
20.275482177734
 31
0.0
  0
LINE
  5
203
100
AcDbEntity
  8
0
  6
CONTINUOUS
 62
          15
100
AcDbLine
 10
-50.160446166992
 20
22.250305175781
 30
0.0
 11
-16.943954467773
 21
22.250305175781
 31
0.0
  0
LINE
  5
204
100
AcDbEntity
  8
0
  6
CONTINUOUS
 62
          15
100
AcDbLine
 10
-50.160446166992
 20
24.225128173828
 30
0.0
 11
-18.91877746582
 21
24.225128173828
 31
0.0
  0
LINE
  5
205
100
AcDbEntity
  8
0
  6
CONTINUOUS
 62
          15
100
AcDbLine
 10
-50.04963684082
 20
84.465026855469
 30
0.0
 11
50.048492431641
 21
84.465026855469
 31
0.0
  0
LINE
  5
206
100
AcDbEntity
  8
0
  6
CONTINUOUS
 62
          15
100
AcDbLine
 10
-48.456741333008
 20
86.439849853516
 30
0.0
 11
48.455596923828
 21
86.439849853516
 31
0.0
  0
LINE
  5
207
100
AcDbEntity
  8
0
  6
CONTINUOUS
 62
          15
100
AcDbLine
 10
-50.160446166992
 20
77.553161621094
 30
0.0
 11
50.159301757813
 21
77.553161621094
 31
0.0
  0
LINE
  5
208
100
AcDbEntity
  8
0
  6
CONTINUOUS
 62
          15
100
AcDbLine
 10
-46.367202758789
 20
45.455993652344
 30
0.0
 11
-46.367202758789
 21
75.70947265625
 31
0.0
  0
LINE
  5
209
100
AcDbEntity
  8
0
  6
CONTINUOUS
 62
          15
100
AcDbLine
 10
-37.125045776367
 20
45.455993652344
 30
0.0
 11
-37.125045776367
 21
75.70947265625
 31
0.0
  0
LINE
  5
20A
100
AcDbEntity
  8
0
  6
CONTINUOUS
 62
          15
100
AcDbLine
 10
-46.367202758789
 20
45.455993652344
 30
0.0
 11
-37.125045776367
 21
45.455993652344
 31
0.0
  0
LINE
  5
20B
100
AcDbEntity
  8
0
  6
CONTINUOUS
 62
          15
100
AcDbLine
 10
-46.367202758789
 20
75.70947265625
 30
0.0
 11
-37.125045776367
 21
75.70947265625
 31
0.0
  0
LINE
  5
20C
100
AcDbEntity
  8
0
  6
CONTINUOUS
 62
          15
100
AcDbLine
 10
-29.814270019531
 20
45.455993652344
 30
0.0
 11
-29.814270019531
 21
75.70947265625
 31
0.0
  0
LINE
  5
20D
100
AcDbEntity
  8
0
  6
CONTINUOUS
 62
          15
100
AcDbLine
 10
-20.57209777832
 20
45.455993652344
 30
0.0
 11
-20.57209777832
 21
75.70947265625
 31
0.0
  0
LINE
  5
20E
100
AcDbEntity
  8
0
  6
CONTINUOUS
 62
          15
100
AcDbLine
 10
-29.814270019531
 20
45.455993652344
 30
0.0
 11
-20.57209777832
 21
45.455993652344
 31
0.0
  0
LINE
  5
20F
100
AcDbEntity
  8
0
  6
CONTINUOUS
 62
          15
100
AcDbLine
 10
-29.814270019531
 20
75.70947265625
 30
0.0
 11
-20.57209777832
 21
75.70947265625
 31
0.0
  0
LINE
  5
210
100
AcDbEntity
  8
0
  6
CONTINUOUS
 62
          15
100
AcDbLine
 10
-14.264526367188
 20
45.455993652344
 30
0.0
 11
-14.264526367188
 21
75.70947265625
 31
0.0
  0
LINE
  5
211
100
AcDbEntity
  8
0
  6
CONTINUOUS
 62
          15
100
AcDbLine
 10
-5.022369384766
 20
45.455993652344
 30
0.0
 11
-5.022369384766
 21
75.70947265625
 31
0.0
  0
LINE
  5
212
100
AcDbEntity
  8
0
  6
CONTINUOUS
 62
          15
100
AcDbLine
 10
-14.264526367188
 20
45.455993652344
 30
0.0
 11
-5.022369384766
 21
45.455993652344
 31
0.0
  0
LINE
  5
213
100
AcDbEntity
  8
0
  6
CONTINUOUS
 62
          15
100
AcDbLine
 10
-14.264526367188
 20
75.70947265625
 30
0.0
 11
-5.022369384766
 21
75.70947265625
 31
0.0
  0
LINE
  5
214
100
AcDbEntity
  8
0
  6
CONTINUOUS
 62
          15
100
AcDbLine
 10
2.221282958984
 20
45.455993652344
 30
0.0
 11
2.221282958984
 21
75.70947265625
 31
0.0
  0
LINE
  5
215
100
AcDbEntity
  8
0
  6
CONTINUOUS
 62
          15
100
AcDbLine
 10
11.463439941406
 20
45.455993652344
 30
0.0
 11
11.463439941406
 21
75.70947265625
 31
0.0
  0
LINE
  5
216
100
AcDbEntity
  8
0
  6
CONTINUOUS
 62
          15
100
AcDbLine
 10
2.221282958984
 20
45.455993652344
 30
0.0
 11
11.463439941406
 21
45.455993652344
 31
0.0
  0
LINE
  5
217
100
AcDbEntity
  8
0
  6
CONTINUOUS
 62
          15
100
AcDbLine
 10
2.221282958984
 20
75.70947265625
 30
0.0
 11
11.463439941406
 21
75.70947265625
 31
0.0
  0
LINE
  5
218
100
AcDbEntity
  8
0
  6
CONTINUOUS
 62
          15
100
AcDbLine
 10
18.774230957031
 20
45.455993652344
 30
0.0
 11
18.774230957031
 21
75.70947265625
 31
0.0
  0
LINE
  5
219
100
AcDbEntity
  8
0
  6
CONTINUOUS
 62
          15
100
AcDbLine
 10
28.016387939453
 20
45.455993652344
 30
0.0
 11
28.016387939453
 21
75.70947265625
 31
0.0
  0
LINE
  5
21A
100
AcDbEntity
  8
0
  6
CONTINUOUS
 62
          15
100
AcDbLine
 10
18.774230957031
 20
45.455993652344
 30
0.0
 11
28.016387939453
 21
45.455993652344
 31
0.0
  0
LINE
  5
21B
100
AcDbEntity
  8
0
  6
CONTINUOUS
 62
          15
100
AcDbLine
 10
18.774230957031
 20
75.70947265625
 30
0.0
 11
28.016387939453
 21
75.70947265625
 31
0.0
  0
LINE
  5
21C
100
AcDbEntity
  8
0
  6
CONTINUOUS
 62
          15
100
AcDbLine
 10
35.963073730469
 20
45.455993652344
 30
0.0
 11
35.963073730469
 21
75.70947265625
 31
0.0
  0
LINE
  5
21D
100
AcDbEntity
  8
0
  6
CONTINUOUS
 62
          15
100
AcDbLine
 10
45.205200195313
 20
45.455993652344
 30
0.0
 11
45.205200195313
 21
75.70947265625
 31
0.0
  0
LINE
  5
21E
100
AcDbEntity
  8
0
  6
CONTINUOUS
 62
          15
100
AcDbLine
 10
35.963073730469
 20
45.455993652344
 30
0.0
 11
45.205200195313
 21
45.455993652344
 31
0.0
  0
LINE
  5
21F
100
AcDbEntity
  8
0
  6
CONTINUOUS
 62
          15
100
AcDbLine
 10
35.963073730469
 20
75.70947265625
 30
0.0
 11
45.205200195313
 21
75.70947265625
 31
0.0
  0
LINE
  5
220
100
AcDbEntity
  8
0
  6
CONTINUOUS
 62
          15
100
AcDbLine
 10
-54.900009155273
 20
8.0
 30
0.0
 11
54.899993896484
 21
8.0
 31
0.0
  0
LINE
  5
221
100
AcDbEntity
  8
0
  6
CONTINUOUS
 62
          15
100
AcDbLine
 10
-54.900009155273
 20
8.0
 30
0.0
 11
-54.900009155273
 21
88.971099853516
 31
0.0
  0
LINE
  5
222
100
AcDbEntity
  8
0
  6
CONTINUOUS
 62
          15
100
AcDbLine
 10
54.899993896484
 20
8.0
 30
0.0
 11
54.899993896484
 21
88.971099853516
 31
0.0
  0
LINE
  5
223
100
AcDbEntity
  8
0
  6
CONTINUOUS
 62
          15
100
AcDbLine
 10
-62.900009155273
 20
99.400024414063
 30
0.0
 11
-55.828948974609
 21
106.471069335938
 31
0.0
  0
LINE
  5
224
100
AcDbEntity
  8
0
  6
CONTINUOUS
 62
          15
100
AcDbLine
 10
62.900024414063
 20
99.400024414063
 30
0.0
 11
69.971099853516
 21
106.471069335938
 31
0.0
  0
LINE
  5
225
100
AcDbEntity
  8
0
  6
CONTINUOUS
 62
          15
100
AcDbLine
 10
62.900024414063
 20
0.0
 30
0.0
 11
69.971099853516
 21
7.071075439453
 31
0.0
  0
LINE
  5
226
100
AcDbEntity
  8
0
  6
CONTINUOUS
 62
          15
100
AcDbLine
 10
69.971099853516
 20
7.071075439453
 30
0.0
 11
69.971099853516
 21
106.471069335938
 31
0.0
  0
LINE
  5
227
100
AcDbEntity
  8
0
  6
CONTINUOUS
 62
          15
100
AcDbLine
 10
-55.82893371582
 20
106.471069335938
 30
0.0
 11
69.971099853516
 21
106.471069335938
 31
0.0
  0
ENDBLK
  5
228
100
AcDbEntity
  8
0
  6
BYBLOCK
 62
           0
100
AcDbBlockEnd
  0
BLOCK
  5
229
100
AcDbEntity
  8
0
100
AcDbBlockBegin
  2
SUPPLY_4
 70
          64
 10
0.0
 20
0.0
 30
0.0
  3
SUPPLY_4
  1

  0
TEXT
  5
22A
100
AcDbEntity
  8
0
  6
CONTINUOUS
 62
          15
100
AcDbText
 10
-0.702117919922
 20
-17.995021052659
 30
0.0
 40
1.0
  1
FUSED AT 3 AMPS
 41
1.000000014901
  7
GOTHICG
100
AcDbText
  0
TEXT
  5
22B
100
AcDbEntity
  8
0
  6
CONTINUOUS
 62
          15
100
AcDbText
 10
-0.342361450195
 20
-15.835620112717
 30
0.0
 40
1.0
  1
240 Vac SUPPLY
 41
1.000000014901
  7
GOTHICG
100
AcDbText
  0
TEXT
  5
22C
100
AcDbEntity
  8
0
  6
CONTINUOUS
 62
          15
100
AcDbText
 10
15.666519165039
 20
-12.416567988694
 30
0.0
 40
1.0
  1
LIVE
 41
1.000000014901
  7
GOTHICG
100
AcDbText
  0
TEXT
  5
22D
100
AcDbEntity
  8
0
  6
CONTINUOUS
 62
          15
100
AcDbText
 10
15.846389770508
 20
-9.89726562053
 30
0.0
 40
1.0
  1
EARTH
 41
1.000000014901
  7
GOTHICG
100
AcDbText
  0
TEXT
  5
22E
100
AcDbEntity
  8
0
  6
CONTINUOUS
 62
          15
100
AcDbText
 10
15.666519165039
 20
-7.737864680588
 30
0.0
 40
1.0
  1
NEUTRAL
 41
1.000000014901
  7
GOTHICG
100
AcDbText
  0
LINE
  5
22F
100
AcDbEntity
  8
0
  6
CONTINUOUS
 62
          15
100
AcDbLine
 10
2.304016113281
 20
-7.19800567627
 30
0.0
 11
13.730758666992
 21
-7.19800567627
 31
0.0
  0
LINE
  5
230
100
AcDbEntity
  8
0
  6
CONTINUOUS
 62
          15
100
AcDbLine
 10
0.0
 20
-9.53736114502
 30
0.0
 11
13.730758666992
 21
-9.53736114502
 31
0.0
  0
LINE
  5
231
100
AcDbEntity
  8
0
  6
CONTINUOUS
 62
          15
100
AcDbLine
 10
-2.303955078125
 20
-11.87671661377
 30
0.0
 11
13.730758666992
 21
-11.87671661377
 31
0.0
  0
LINE
  5
232
100
AcDbEntity
  8
0
  6
CONTINUOUS
 62
          15
100
AcDbLine
 10
2.304016113281
 20
0.0
 30
0.0
 11
2.304016113281
 21
7.085510253906
 31
0.0
  0
LINE
  5
233
100
AcDbEntity
  8
0
  6
CONTINUOUS
 62
          15
100
AcDbLine
 10
2.304016113281
 20
-7.19800567627
 30
0.0
 11
2.304016113281
 21
0.0
 31
0.0
  0
LINE
  5
234
100
AcDbEntity
  8
0
  6
CONTINUOUS
 62
          15
100
AcDbLine
 10
0.0
 20
0.0
 30
0.0
 11
0.0
 21
7.085510253906
 31
0.0
  0
LINE
  5
235
100
AcDbEntity
  8
0
  6
CONTINUOUS
 62
          15
100
AcDbLine
 10
0.0
 20
-9.53736114502
 30
0.0
 11
0.0
 21
0.0
 31
0.0
  0
LINE
  5
236
100
AcDbEntity
  8
0
  6
CONTINUOUS
 62
          15
100
AcDbLine
 10
-2.303955078125
 20
0.0
 30
0.0
 11
-2.303955078125
 21
7.085510253906
 31
0.0
  0
LINE
  5
237
100
AcDbEntity
  8
0
  6
CONTINUOUS
 62
          15
100
AcDbLine
 10
-2.303955078125
 20
-11.87671661377
 30
0.0
 11
-2.303955078125
 21
0.0
 31
0.0
  0
ENDBLK
  5
238
100
AcDbEntity
  8
0
  6
BYBLOCK
 62
           0
100
AcDbBlockEnd
  0
BLOCK
  5
239
100
AcDbEntity
  8
0
100
AcDbBlockBegin
  2
SDXPSA_5
 70
          64
 10
0.0
 20
0.0
 30
0.0
  3
SDXPSA_5
  1

  0
LINE
  5
23A
100
AcDbEntity
  8
0
  6
CONTINUOUS
 62
          15
100
AcDbLine
 10
-40.891185760498
 20
-42.928718566895
 30
0.0
 11
-40.891185760498
 21
-27.459526062012
 31
0.0
  0
LINE
  5
23B
100
AcDbEntity
  8
0
  6
CONTINUOUS
 62
          15
100
AcDbLine
 10
17.528816223145
 20
-25.07674407959
 30
0.0
 11
17.528816223145
 21
-42.928718566895
 31
0.0
  0
LINE
  5
23C
100
AcDbEntity
  8
0
  6
CONTINUOUS
 62
          15
100
AcDbLine
 10
17.528816223145
 20
-42.928718566895
 30
0.0
 11
-40.891185760498
 21
-42.928718566895
 31
0.0
  0
LINE
  5
23D
100
AcDbEntity
  8
0
  6
CONTINUOUS
 62
          15
100
AcDbLine
 10
-1.013191223145
 20
-19.941719055176
 30
0.0
 11
-1.013191223145
 21
-25.02172088623
 31
0.0
  0
LINE
  5
23E
100
AcDbEntity
  8
0
  6
CONTINUOUS
 62
          15
100
AcDbLine
 10
-1.013191223145
 20
-19.941719055176
 30
0.0
 11
-3.553184509277
 21
-19.941719055176
 31
0.0
  0
LINE
  5
23F
100
AcDbEntity
  8
0
  6
CONTINUOUS
 62
          15
100
AcDbLine
 10
-3.553184509277
 20
-25.02172088623
 30
0.0
 11
-3.553184509277
 21
-19.941719055176
 31
0.0
  0
LINE
  5
240
100
AcDbEntity
  8
0
  6
CONTINUOUS
 62
          15
100
AcDbLine
 10
-3.553184509277
 20
-25.02172088623
 30
0.0
 11
-1.013191223145
 21
-25.02172088623
 31
0.0
  0
LINE
  5
241
100
AcDbEntity
  8
0
  6
CONTINUOUS
 62
          15
100
AcDbLine
 10
-1.013191223145
 20
-21.211723327637
 30
0.0
 11
-3.553184509277
 21
-21.211723327637
 31
0.0
  0
LINE
  5
242
100
AcDbEntity
  8
0
  6
CONTINUOUS
 62
          15
100
AcDbLine
 10
13.33780670166
 20
-23.497718811035
 30
0.0
 11
5.717811584473
 21
-23.497718811035
 31
0.0
  0
LINE
  5
243
100
AcDbEntity
  8
0
  6
CONTINUOUS
 62
          15
100
AcDbLine
 10
13.33780670166
 20
-23.497718811035
 30
0.0
 11
13.33780670166
 21
-29.593719482422
 31
0.0
  0
LINE
  5
244
100
AcDbEntity
  8
0
  6
CONTINUOUS
 62
          15
100
AcDbLine
 10
5.717811584473
 20
-29.593719482422
 30
0.0
 11
13.33780670166
 21
-29.593719482422
 31
0.0
  0
LINE
  5
245
100
AcDbEntity
  8
0
  6
CONTINUOUS
 62
          15
100
AcDbLine
 10
5.717811584473
 20
-29.593719482422
 30
0.0
 11
5.717811584473
 21
-23.497718811035
 31
0.0
  0
LINE
  5
246
100
AcDbEntity
  8
0
  6
CONTINUOUS
 62
          15
100
AcDbLine
 10
-11.528785705566
 20
-26.418716430664
 30
0.0
 11
-11.528785705566
 21
-23.878723144531
 31
0.0
  0
LINE
  5
247
100
AcDbEntity
  8
0
  6
CONTINUOUS
 62
          15
100
AcDbLine
 10
-11.528785705566
 20
-26.418716430664
 30
0.0
 11
-12.798789978027
 21
-26.418716430664
 31
0.0
  0
LINE
  5
248
100
AcDbEntity
  8
0
  6
CONTINUOUS
 62
          15
100
AcDbLine
 10
-12.798789978027
 20
-23.878723144531
 30
0.0
 11
-12.798789978027
 21
-26.418716430664
 31
0.0
  0
LINE
  5
249
100
AcDbEntity
  8
0
  6
CONTINUOUS
 62
          15
100
AcDbLine
 10
-12.798789978027
 20
-23.878723144531
 30
0.0
 11
-11.528785705566
 21
-23.878723144531
 31
0.0
  0
LINE
  5
24A
100
AcDbEntity
  8
0
  6
CONTINUOUS
 62
          15
100
AcDbLine
 10
-12.163787841797
 20
-23.878723144531
 30
0.0
 11
-12.163787841797
 21
-23.561218261719
 31
0.0
  0
LINE
  5
24B
100
AcDbEntity
  8
0
  6
CONTINUOUS
 62
          15
100
AcDbLine
 10
-12.163787841797
 20
-23.878723144531
 30
0.0
 11
-12.163787841797
 21
-23.878723144531
 31
0.0
  0
LINE
  5
24C
100
AcDbEntity
  8
0
  6
CONTINUOUS
 62
          15
100
AcDbLine
 10
-12.163787841797
 20
-23.561218261719
 30
0.0
 11
-12.163787841797
 21
-23.878723144531
 31
0.0
  0
LINE
  5
24D
100
AcDbEntity
  8
0
  6
CONTINUOUS
 62
          15
100
AcDbLine
 10
-12.163787841797
 20
-23.561218261719
 30
0.0
 11
-12.163787841797
 21
-23.561218261719
 31
0.0
  0
LINE
  5
24E
100
AcDbEntity
  8
0
  6
CONTINUOUS
 62
          15
100
AcDbLine
 10
-12.163787841797
 20
-26.736221313477
 30
0.0
 11
-12.163787841797
 21
-26.418716430664
 31
0.0
  0
LINE
  5
24F
100
AcDbEntity
  8
0
  6
CONTINUOUS
 62
          15
100
AcDbLine
 10
-12.163787841797
 20
-26.736221313477
 30
0.0
 11
-12.163787841797
 21
-26.736221313477
 31
0.0
  0
LINE
  5
250
100
AcDbEntity
  8
0
  6
CONTINUOUS
 62
          15
100
AcDbLine
 10
-12.163787841797
 20
-26.418716430664
 30
0.0
 11
-12.163787841797
 21
-26.736221313477
 31
0.0
  0
LINE
  5
251
100
AcDbEntity
  8
0
  6
CONTINUOUS
 62
          15
100
AcDbLine
 10
-12.163787841797
 20
-26.418716430664
 30
0.0
 11
-12.163787841797
 21
-26.418716430664
 31
0.0
  0
LINE
  5
252
100
AcDbEntity
  8
0
  6
CONTINUOUS
 62
          15
100
AcDbLine
 10
-11.528785705566
 20
-25.783721923828
 30
0.0
 11
-12.798789978027
 21
-25.783721923828
 31
0.0
  0
LINE
  5
253
100
AcDbEntity
  8
0
  6
CONTINUOUS
 62
          15
100
AcDbLine
 10
-8.429985046387
 20
-26.418716430664
 30
0.0
 11
-8.429985046387
 21
-23.878723144531
 31
0.0
  0
LINE
  5
254
100
AcDbEntity
  8
0
  6
CONTINUOUS
 62
          15
100
AcDbLine
 10
-8.429985046387
 20
-26.418716430664
 30
0.0
 11
-9.699989318848
 21
-26.418716430664
 31
0.0
  0
LINE
  5
255
100
AcDbEntity
  8
0
  6
CONTINUOUS
 62
          15
100
AcDbLine
 10
-9.699989318848
 20
-23.878723144531
 30
0.0
 11
-9.699989318848
 21
-26.418716430664
 31
0.0
  0
LINE
  5
256
100
AcDbEntity
  8
0
  6
CONTINUOUS
 62
          15
100
AcDbLine
 10
-9.699989318848
 20
-23.878723144531
 30
0.0
 11
-8.429985046387
 21
-23.878723144531
 31
0.0
  0
LINE
  5
257
100
AcDbEntity
  8
0
  6
CONTINUOUS
 62
          15
100
AcDbLine
 10
-9.064987182617
 20
-23.878723144531
 30
0.0
 11
-9.064987182617
 21
-23.561218261719
 31
0.0
  0
LINE
  5
258
100
AcDbEntity
  8
0
  6
CONTINUOUS
 62
          15
100
AcDbLine
 10
-9.064987182617
 20
-23.878723144531
 30
0.0
 11
-9.064987182617
 21
-23.878723144531
 31
0.0
  0
LINE
  5
259
100
AcDbEntity
  8
0
  6
CONTINUOUS
 62
          15
100
AcDbLine
 10
-9.064987182617
 20
-23.561218261719
 30
0.0
 11
-9.064987182617
 21
-23.878723144531
 31
0.0
  0
LINE
  5
25A
100
AcDbEntity
  8
0
  6
CONTINUOUS
 62
          15
100
AcDbLine
 10
-9.064987182617
 20
-23.561218261719
 30
0.0
 11
-9.064987182617
 21
-23.561218261719
 31
0.0
  0
LINE
  5
25B
100
AcDbEntity
  8
0
  6
CONTINUOUS
 62
          15
100
AcDbLine
 10
-9.064987182617
 20
-26.736221313477
 30
0.0
 11
-9.064987182617
 21
-26.418716430664
 31
0.0
  0
LINE
  5
25C
100
AcDbEntity
  8
0
  6
CONTINUOUS
 62
          15
100
AcDbLine
 10
-9.064987182617
 20
-26.736221313477
 30
0.0
 11
-9.064987182617
 21
-26.736221313477
 31
0.0
  0
LINE
  5
25D
100
AcDbEntity
  8
0
  6
CONTINUOUS
 62
          15
100
AcDbLine
 10
-9.064987182617
 20
-26.418716430664
 30
0.0
 11
-9.064987182617
 21
-26.736221313477
 31
0.0
  0
LINE
  5
25E
100
AcDbEntity
  8
0
  6
CONTINUOUS
 62
          15
100
AcDbLine
 10
-9.064987182617
 20
-26.418716430664
 30
0.0
 11
-9.064987182617
 21
-26.418716430664
 31
0.0
  0
LINE
  5
25F
100
AcDbEntity
  8
0
  6
CONTINUOUS
 62
          15
100
AcDbLine
 10
-8.429985046387
 20
-25.783721923828
 30
0.0
 11
-9.699989318848
 21
-25.783721923828
 31
0.0
  0
LINE
  5
260
100
AcDbEntity
  8
0
  6
CONTINUOUS
 62
          15
100
AcDbLine
 10
-7.794990539551
 20
-23.878723144531
 30
0.0
 11
-7.794990539551
 21
-26.418716430664
 31
0.0
  0
LINE
  5
261
100
AcDbEntity
  8
0
  6
CONTINUOUS
 62
          15
100
AcDbLine
 10
-7.794990539551
 20
-23.878723144531
 30
0.0
 11
-6.52498626709
 21
-23.878723144531
 31
0.0
  0
LINE
  5
262
100
AcDbEntity
  8
0
  6
CONTINUOUS
 62
          15
100
AcDbLine
 10
-6.52498626709
 20
-26.418716430664
 30
0.0
 11
-6.52498626709
 21
-23.878723144531
 31
0.0
  0
LINE
  5
263
100
AcDbEntity
  8
0
  6
CONTINUOUS
 62
          15
100
AcDbLine
 10
-6.52498626709
 20
-26.418716430664
 30
0.0
 11
-7.794990539551
 21
-26.418716430664
 31
0.0
  0
LINE
  5
264
100
AcDbEntity
  8
0
  6
CONTINUOUS
 62
          15
100
AcDbLine
 10
-7.15998840332
 20
-26.418716430664
 30
0.0
 11
-7.15998840332
 21
-26.736221313477
 31
0.0
  0
LINE
  5
265
100
AcDbEntity
  8
0
  6
CONTINUOUS
 62
          15
100
AcDbLine
 10
-7.15998840332
 20
-26.418716430664
 30
0.0
 11
-7.15998840332
 21
-26.418716430664
 31
0.0
  0
LINE
  5
266
100
AcDbEntity
  8
0
  6
CONTINUOUS
 62
          15
100
AcDbLine
 10
-7.15998840332
 20
-26.736221313477
 30
0.0
 11
-7.15998840332
 21
-26.418716430664
 31
0.0
  0
LINE
  5
267
100
AcDbEntity
  8
0
  6
CONTINUOUS
 62
          15
100
AcDbLine
 10
-7.15998840332
 20
-26.736221313477
 30
0.0
 11
-7.15998840332
 21
-26.736221313477
 31
0.0
  0
LINE
  5
268
100
AcDbEntity
  8
0
  6
CONTINUOUS
 62
          15
100
AcDbLine
 10
-7.15998840332
 20
-23.561218261719
 30
0.0
 11
-7.15998840332
 21
-23.878723144531
 31
0.0
  0
LINE
  5
269
100
AcDbEntity
  8
0
  6
CONTINUOUS
 62
          15
100
AcDbLine
 10
-7.15998840332
 20
-23.561218261719
 30
0.0
 11
-7.15998840332
 21
-23.561218261719
 31
0.0
  0
LINE
  5
26A
100
AcDbEntity
  8
0
  6
CONTINUOUS
 62
          15
100
AcDbLine
 10
-7.15998840332
 20
-23.878723144531
 30
0.0
 11
-7.15998840332
 21
-23.561218261719
 31
0.0
  0
LINE
  5
26B
100
AcDbEntity
  8
0
  6
CONTINUOUS
 62
          15
100
AcDbLine
 10
-7.15998840332
 20
-23.878723144531
 30
0.0
 11
-7.15998840332
 21
-23.878723144531
 31
0.0
  0
LINE
  5
26C
100
AcDbEntity
  8
0
  6
CONTINUOUS
 62
          15
100
AcDbLine
 10
-7.794990539551
 20
-24.513717651367
 30
0.0
 11
-6.52498626709
 21
-24.513717651367
 31
0.0
  0
LINE
  5
26D
100
AcDbEntity
  8
0
  6
CONTINUOUS
 62
          15
100
AcDbLine
 10
-35.099987030029
 20
-33.149719238281
 30
0.0
 11
-28.749988555908
 21
-33.149719238281
 31
0.0
  0
LINE
  5
26E
100
AcDbEntity
  8
0
  6
CONTINUOUS
 62
          15
100
AcDbLine
 10
-35.099987030029
 20
-33.149719238281
 30
0.0
 11
-35.099987030029
 21
-23.018920898438
 31
0.0
  0
LINE
  5
26F
100
AcDbEntity
  8
0
  6
CONTINUOUS
 62
          15
100
AcDbLine
 10
-28.749988555908
 20
-20.250038146973
 30
0.0
 11
-28.749988555908
 21
-33.149719238281
 31
0.0
  0
LINE
  5
270
100
AcDbEntity
  8
0
  6
CONTINUOUS
 62
          15
100
AcDbLine
 10
3.17781829834
 20
-22.354721069336
 30
0.0
 11
13.33780670166
 21
-22.354721069336
 31
0.0
  0
LINE
  5
271
100
AcDbEntity
  8
0
  6
CONTINUOUS
 62
          15
100
AcDbLine
 10
3.17781829834
 20
-22.354721069336
 30
0.0
 11
3.17781829834
 21
-18.897819519043
 31
0.0
  0
LINE
  5
272
100
AcDbEntity
  8
0
  6
CONTINUOUS
 62
          15
100
AcDbLine
 10
2.441215515137
 20
-36.578720092773
 30
0.0
 11
16.258811950684
 21
-36.578720092773
 31
0.0
  0
LINE
  5
273
100
AcDbEntity
  8
0
  6
CONTINUOUS
 62
          15
100
AcDbLine
 10
2.441215515137
 20
-36.578720092773
 30
0.0
 11
2.441215515137
 21
-18.735832214355
 31
0.0
  0
LINE
  5
274
100
AcDbEntity
  8
0
  6
CONTINUOUS
 62
          15
100
AcDbLine
 10
16.258811950684
 20
-24.173133850098
 30
0.0
 11
16.258811950684
 21
-36.578720092773
 31
0.0
  0
ARC
  5
275
100
AcDbEntity
  8
0
  6
CONTINUOUS
 62
          15
100
AcDbCircle
 10
9.273811340332
 20
-37.213722229004
 30
0.0
 40
4.927599906921
100
AcDbArc
 50
224.999999658377
 51
315.000002162855
  0
LINE
  5
276
100
AcDbEntity
  8
0
  6
CONTINUOUS
 62
          15
100
AcDbLine
 10
1.653816223145
 20
-37.366119384766
 30
0.0
 11
17.058906555176
 21
-37.366119384766
 31
0.0
  0
LINE
  5
277
100
AcDbEntity
  8
0
  6
CONTINUOUS
 62
          15
100
AcDbLine
 10
1.653816223145
 20
-37.366119384766
 30
0.0
 11
1.653816223145
 21
-18.57430267334
 31
0.0
  0
LINE
  5
278
100
AcDbEntity
  8
0
  6
CONTINUOUS
 62
          15
100
AcDbLine
 10
17.058906555176
 20
-24.72811126709
 30
0.0
 11
17.058906555176
 21
-37.366119384766
 31
0.0
  0
ARC
  5
279
100
AcDbEntity
  8
0
  6
CONTINUOUS
 62
          15
100
AcDbCircle
 10
-2.638786315918
 20
-46.903823852539
 30
0.0
 40
10.477499961853
100
AcDbArc
 50
36.249996170697
 51
65.750003252616
  0
ARC
  5
27A
100
AcDbEntity
  8
0
  6
CONTINUOUS
 62
          15
100
AcDbCircle
 10
21.021308898926
 20
-46.903823852539
 30
0.0
 40
10.325099945068
100
AcDbArc
 50
112.500011668334
 51
142.999996010783
  0
LINE
  5
27B
100
AcDbEntity
  8
0
  6
CONTINUOUS
 62
          15
100
AcDbLine
 10
-28.419788360596
 20
-36.007217407227
 30
0.0
 11
-20.952182769775
 21
-36.007217407227
 31
0.0
  0
LINE
  5
27C
100
AcDbEntity
  8
0
  6
CONTINUOUS
 62
          15
100
AcDbLine
 10
-28.419788360596
 20
-36.007217407227
 30
0.0
 11
-28.419788360596
 21
-28.539619445801
 31
0.0
  0
LINE
  5
27D
100
AcDbEntity
  8
0
  6
CONTINUOUS
 62
          15
100
AcDbLine
 10
-20.952182769775
 20
-28.539619445801
 30
0.0
 11
-28.419788360596
 21
-28.539619445801
 31
0.0
  0
LINE
  5
27E
100
AcDbEntity
  8
0
  6
CONTINUOUS
 62
          15
100
AcDbLine
 10
-20.952182769775
 20
-28.539619445801
 30
0.0
 11
-20.952182769775
 21
-36.007217407227
 31
0.0
  0
LINE
  5
27F
100
AcDbEntity
  8
0
  6
CONTINUOUS
 62
          15
100
AcDbLine
 10
-20.914081573486
 20
-36.007217407227
 30
0.0
 11
-13.446487426758
 21
-36.007217407227
 31
0.0
  0
LINE
  5
280
100
AcDbEntity
  8
0
  6
CONTINUOUS
 62
          15
100
AcDbLine
 10
-20.914081573486
 20
-36.007217407227
 30
0.0
 11
-20.914081573486
 21
-28.539619445801
 31
0.0
  0
LINE
  5
281
100
AcDbEntity
  8
0
  6
CONTINUOUS
 62
          15
100
AcDbLine
 10
-13.446487426758
 20
-28.539619445801
 30
0.0
 11
-20.914081573486
 21
-28.539619445801
 31
0.0
  0
LINE
  5
282
100
AcDbEntity
  8
0
  6
CONTINUOUS
 62
          15
100
AcDbLine
 10
-13.446487426758
 20
-28.539619445801
 30
0.0
 11
-13.446487426758
 21
-36.007217407227
 31
0.0
  0
LINE
  5
283
100
AcDbEntity
  8
0
  6
CONTINUOUS
 62
          15
100
AcDbLine
 10
-15.834091186523
 20
-26.710823059082
 30
0.0
 11
-15.834091186523
 21
-21.465721130371
 31
0.0
  0
LINE
  5
284
100
AcDbEntity
  8
0
  6
CONTINUOUS
 62
          15
100
AcDbLine
 10
-15.834091186523
 20
-26.710823059082
 30
0.0
 11
-26.311588287354
 21
-26.710823059082
 31
0.0
  0
LINE
  5
285
100
AcDbEntity
  8
0
  6
CONTINUOUS
 62
          15
100
AcDbLine
 10
-26.311588287354
 20
-21.465721130371
 30
0.0
 11
-26.311588287354
 21
-26.710823059082
 31
0.0
  0
LINE
  5
286
100
AcDbEntity
  8
0
  6
CONTINUOUS
 62
          15
100
AcDbLine
 10
-26.311588287354
 20
-21.465721130371
 30
0.0
 11
-15.834091186523
 21
-21.465721130371
 31
0.0
  0
LINE
  5
287
100
AcDbEntity
  8
0
  6
CONTINUOUS
 62
          15
100
AcDbLine
 10
-26.870388031006
 20
-23.92951965332
 30
0.0
 11
-26.870388031006
 21
-23.231018066406
 31
0.0
  0
LINE
  5
288
100
AcDbEntity
  8
0
  6
CONTINUOUS
 62
          15
100
AcDbLine
 10
-26.870388031006
 20
-20.437019348145
 30
0.0
 11
-26.870388031006
 21
-21.135520935059
 31
0.0
  0
LINE
  5
289
100
AcDbEntity
  8
0
  6
CONTINUOUS
 62
          15
100
AcDbLine
 10
-27.378383636475
 20
-21.135520935059
 30
0.0
 11
-27.378383636475
 21
-23.231018066406
 31
0.0
  0
LINE
  5
28A
100
AcDbEntity
  8
0
  6
CONTINUOUS
 62
          15
100
AcDbLine
 10
-27.378383636475
 20
-21.135520935059
 30
0.0
 11
-26.362384796143
 21
-21.135520935059
 31
0.0
  0
LINE
  5
28B
100
AcDbEntity
  8
0
  6
CONTINUOUS
 62
          15
100
AcDbLine
 10
-26.362384796143
 20
-23.231018066406
 30
0.0
 11
-26.362384796143
 21
-21.135520935059
 31
0.0
  0
LINE
  5
28C
100
AcDbEntity
  8
0
  6
CONTINUOUS
 62
          15
100
AcDbLine
 10
-26.362384796143
 20
-23.231018066406
 30
0.0
 11
-27.378383636475
 21
-23.231018066406
 31
0.0
  0
LINE
  5
28D
100
AcDbEntity
  8
0
  6
CONTINUOUS
 62
          15
100
AcDbLine
 10
-26.362384796143
 20
-21.643516540527
 30
0.0
 11
-27.378383636475
 21
-21.643516540527
 31
0.0
  0
LINE
  5
28E
100
AcDbEntity
  8
0
  6
CONTINUOUS
 62
          15
100
AcDbLine
 10
-26.362384796143
 20
-21.834022521973
 30
0.0
 11
-27.378383636475
 21
-21.834022521973
 31
0.0
  0
LINE
  5
28F
100
AcDbEntity
  8
0
  6
CONTINUOUS
 62
          15
100
AcDbLine
 10
-13.408386230469
 20
-36.007217407227
 30
0.0
 11
-5.940788269043
 21
-36.007217407227
 31
0.0
  0
LINE
  5
290
100
AcDbEntity
  8
0
  6
CONTINUOUS
 62
          15
100
AcDbLine
 10
-13.408386230469
 20
-36.007217407227
 30
0.0
 11
-13.408386230469
 21
-28.539619445801
 31
0.0
  0
LINE
  5
291
100
AcDbEntity
  8
0
  6
CONTINUOUS
 62
          15
100
AcDbLine
 10
-5.940788269043
 20
-28.539619445801
 30
0.0
 11
-13.408386230469
 21
-28.539619445801
 31
0.0
  0
LINE
  5
292
100
AcDbEntity
  8
0
  6
CONTINUOUS
 62
          15
100
AcDbLine
 10
-5.940788269043
 20
-28.539619445801
 30
0.0
 11
-5.940788269043
 21
-36.007217407227
 31
0.0
  0
LINE
  5
293
100
AcDbEntity
  8
0
  6
CONTINUOUS
 62
          15
100
AcDbLine
 10
-5.902687072754
 20
-36.007217407227
 30
0.0
 11
1.564910888672
 21
-36.007217407227
 31
0.0
  0
LINE
  5
294
100
AcDbEntity
  8
0
  6
CONTINUOUS
 62
          15
100
AcDbLine
 10
-5.902687072754
 20
-36.007217407227
 30
0.0
 11
-5.902687072754
 21
-28.539619445801
 31
0.0
  0
LINE
  5
295
100
AcDbEntity
  8
0
  6
CONTINUOUS
 62
          15
100
AcDbLine
 10
1.564910888672
 20
-28.539619445801
 30
0.0
 11
-5.902687072754
 21
-28.539619445801
 31
0.0
  0
LINE
  5
296
100
AcDbEntity
  8
0
  6
CONTINUOUS
 62
          15
100
AcDbLine
 10
1.564910888672
 20
-28.539619445801
 30
0.0
 11
1.564910888672
 21
-36.007217407227
 31
0.0
  0
LINE
  5
297
100
AcDbEntity
  8
0
  6
CONTINUOUS
 62
          15
100
AcDbLine
 10
5.895606994629
 20
-32.387718200684
 30
0.0
 11
3.889015197754
 21
-32.387718200684
 31
0.0
  0
LINE
  5
298
100
AcDbEntity
  8
0
  6
CONTINUOUS
 62
          15
100
AcDbLine
 10
3.889015197754
 20
-32.387718200684
 30
0.0
 11
2.898414611816
 21
-34.140319824219
 31
0.0
  0
LINE
  5
299
100
AcDbEntity
  8
0
  6
CONTINUOUS
 62
          15
100
AcDbLine
 10
2.898414611816
 20
-34.140319824219
 30
0.0
 11
3.889015197754
 21
-35.892921447754
 31
0.0
  0
LINE
  5
29A
100
AcDbEntity
  8
0
  6
CONTINUOUS
 62
          15
100
AcDbLine
 10
3.889015197754
 20
-35.892921447754
 30
0.0
 11
5.895606994629
 21
-35.892921447754
 31
0.0
  0
LINE
  5
29B
100
AcDbEntity
  8
0
  6
CONTINUOUS
 62
          15
100
AcDbLine
 10
5.895606994629
 20
-35.892921447754
 30
0.0
 11
6.886207580566
 21
-34.140319824219
 31
0.0
  0
LINE
  5
29C
100
AcDbEntity
  8
0
  6
CONTINUOUS
 62
          15
100
AcDbLine
 10
6.886207580566
 20
-34.140319824219
 30
0.0
 11
5.895606994629
 21
-32.387718200684
 31
0.0
  0
CIRCLE
  5
29D
100
AcDbEntity
  8
0
  6
CONTINUOUS
 62
          15
100
AcDbCircle
 10
4.892311096191
 20
-34.140319824219
 30
0.0
 40
2.247900009155
  0
LINE
  5
29E
100
AcDbEntity
  8
0
  6
CONTINUOUS
 62
          15
100
AcDbLine
 10
-32.051982879639
 20
-34.724517822266
 30
0.0
 11
-32.051982879639
 21
-34.724517822266
 31
0.0
  0
LINE
  5
29F
100
AcDbEntity
  8
0
  6
CONTINUOUS
 62
          15
100
AcDbLine
 10
-32.051982879639
 20
-34.724517822266
 30
0.0
 11
-32.051982879639
 21
-33.454521179199
 31
0.0
  0
LINE
  5
2A0
100
AcDbEntity
  8
0
  6
CONTINUOUS
 62
          15
100
AcDbLine
 10
-32.051982879639
 20
-33.454521179199
 30
0.0
 11
-32.051982879639
 21
-33.454521179199
 31
0.0
  0
LINE
  5
2A1
100
AcDbEntity
  8
0
  6
CONTINUOUS
 62
          15
100
AcDbLine
 10
-32.051982879639
 20
-33.454521179199
 30
0.0
 11
-32.051982879639
 21
-34.724517822266
 31
0.0
  0
LINE
  5
2A2
100
AcDbEntity
  8
0
  6
CONTINUOUS
 62
          15
100
AcDbLine
 10
-31.734485626221
 20
-34.08952331543
 30
0.0
 11
-31.416988372803
 21
-34.08952331543
 31
0.0
  0
LINE
  5
2A3
100
AcDbEntity
  8
0
  6
CONTINUOUS
 62
          15
100
AcDbLine
 10
-31.734485626221
 20
-34.08952331543
 30
0.0
 11
-31.734485626221
 21
-34.08952331543
 31
0.0
  0
LINE
  5
2A4
100
AcDbEntity
  8
0
  6
CONTINUOUS
 62
          15
100
AcDbLine
 10
-31.416988372803
 20
-34.08952331543
 30
0.0
 11
-31.734485626221
 21
-34.08952331543
 31
0.0
  0
LINE
  5
2A5
100
AcDbEntity
  8
0
  6
CONTINUOUS
 62
          15
100
AcDbLine
 10
-31.416988372803
 20
-34.08952331543
 30
0.0
 11
-31.416988372803
 21
-34.08952331543
 31
0.0
  0
LINE
  5
2A6
100
AcDbEntity
  8
0
  6
CONTINUOUS
 62
          15
100
AcDbLine
 10
-32.051982879639
 20
-34.08952331543
 30
0.0
 11
-32.369487762451
 21
-34.08952331543
 31
0.0
  0
LINE
  5
2A7
100
AcDbEntity
  8
0
  6
CONTINUOUS
 62
          15
100
AcDbLine
 10
-32.051982879639
 20
-34.08952331543
 30
0.0
 11
-32.051982879639
 21
-34.08952331543
 31
0.0
  0
LINE
  5
2A8
100
AcDbEntity
  8
0
  6
CONTINUOUS
 62
          15
100
AcDbLine
 10
-32.369487762451
 20
-34.08952331543
 30
0.0
 11
-32.051982879639
 21
-34.08952331543
 31
0.0
  0
LINE
  5
2A9
100
AcDbEntity
  8
0
  6
CONTINUOUS
 62
          15
100
AcDbLine
 10
-32.369487762451
 20
-34.08952331543
 30
0.0
 11
-32.369487762451
 21
-34.08952331543
 31
0.0
  0
LINE
  5
2AA
100
AcDbEntity
  8
0
  6
CONTINUOUS
 62
          15
100
AcDbLine
 10
-31.734485626221
 20
-33.454521179199
 30
0.0
 11
-31.734485626221
 21
-34.724517822266
 31
0.0
  0
LINE
  5
2AB
100
AcDbEntity
  8
0
  6
CONTINUOUS
 62
          15
100
AcDbLine
 10
-0.251190185547
 20
-26.926719665527
 30
0.0
 11
-0.251190185547
 21
-26.926719665527
 31
0.0
  0
LINE
  5
2AC
100
AcDbEntity
  8
0
  6
CONTINUOUS
 62
          15
100
AcDbLine
 10
-0.251190185547
 20
-26.926719665527
 30
0.0
 11
-0.251190185547
 21
-28.196723937988
 31
0.0
  0
LINE
  5
2AD
100
AcDbEntity
  8
0
  6
CONTINUOUS
 62
          15
100
AcDbLine
 10
-0.251190185547
 20
-28.196723937988
 30
0.0
 11
-0.251190185547
 21
-28.196723937988
 31
0.0
  0
LINE
  5
2AE
100
AcDbEntity
  8
0
  6
CONTINUOUS
 62
          15
100
AcDbLine
 10
-0.251190185547
 20
-28.196723937988
 30
0.0
 11
-0.251190185547
 21
-26.926719665527
 31
0.0
  0
LINE
  5
2AF
100
AcDbEntity
  8
0
  6
CONTINUOUS
 62
          15
100
AcDbLine
 10
-0.886184692383
 20
-26.926719665527
 30
0.0
 11
-0.886184692383
 21
-26.926719665527
 31
0.0
  0
LINE
  5
2B0
100
AcDbEntity
  8
0
  6
CONTINUOUS
 62
          15
100
AcDbLine
 10
-0.886184692383
 20
-26.926719665527
 30
0.0
 11
-0.886184692383
 21
-28.196723937988
 31
0.0
  0
LINE
  5
2B1
100
AcDbEntity
  8
0
  6
CONTINUOUS
 62
          15
100
AcDbLine
 10
-0.886184692383
 20
-28.196723937988
 30
0.0
 11
-0.886184692383
 21
-28.196723937988
 31
0.0
  0
LINE
  5
2B2
100
AcDbEntity
  8
0
  6
CONTINUOUS
 62
          15
100
AcDbLine
 10
-0.886184692383
 20
-28.196723937988
 30
0.0
 11
-0.886184692383
 21
-26.926719665527
 31
0.0
  0
LINE
  5
2B3
100
AcDbEntity
  8
0
  6
CONTINUOUS
 62
          15
100
AcDbLine
 10
0.066314697266
 20
-27.561721801758
 30
0.0
 11
-0.251190185547
 21
-27.561721801758
 31
0.0
  0
LINE
  5
2B4
100
AcDbEntity
  8
0
  6
CONTINUOUS
 62
          15
100
AcDbLine
 10
0.066314697266
 20
-27.561721801758
 30
0.0
 11
0.066314697266
 21
-27.561721801758
 31
0.0
  0
LINE
  5
2B5
100
AcDbEntity
  8
0
  6
CONTINUOUS
 62
          15
100
AcDbLine
 10
-0.251190185547
 20
-27.561721801758
 30
0.0
 11
0.066314697266
 21
-27.561721801758
 31
0.0
  0
LINE
  5
2B6
100
AcDbEntity
  8
0
  6
CONTINUOUS
 62
          15
100
AcDbLine
 10
-0.251190185547
 20
-27.561721801758
 30
0.0
 11
-0.251190185547
 21
-27.561721801758
 31
0.0
  0
LINE
  5
2B7
100
AcDbEntity
  8
0
  6
CONTINUOUS
 62
          15
100
AcDbLine
 10
-0.886184692383
 20
-27.561721801758
 30
0.0
 11
-1.203689575195
 21
-27.561721801758
 31
0.0
  0
LINE
  5
2B8
100
AcDbEntity
  8
0
  6
CONTINUOUS
 62
          15
100
AcDbLine
 10
-0.886184692383
 20
-27.561721801758
 30
0.0
 11
-0.886184692383
 21
-27.561721801758
 31
0.0
  0
LINE
  5
2B9
100
AcDbEntity
  8
0
  6
CONTINUOUS
 62
          15
100
AcDbLine
 10
-1.203689575195
 20
-27.561721801758
 30
0.0
 11
-0.886184692383
 21
-27.561721801758
 31
0.0
  0
LINE
  5
2BA
100
AcDbEntity
  8
0
  6
CONTINUOUS
 62
          15
100
AcDbLine
 10
-1.203689575195
 20
-27.561721801758
 30
0.0
 11
-1.203689575195
 21
-27.561721801758
 31
0.0
  0
TEXT
  5
2BB
100
AcDbEntity
  8
0
  6
CONTINUOUS
 62
          15
100
AcDbText
 10
-5.20418549883
 20
-38.102722324431
 30
0.0
 40
0.990600049496
  1
1
 50
0.000002504478
 41
0.999999894702
  7
TXT
100
AcDbText
  0
TEXT
  5
2BC
100
AcDbEntity
  8
0
  6
CONTINUOUS
 62
          15
100
AcDbText
 10
-6.601188672658
 20
-40.769722141325
 30
0.0
 40
0.990600049496
  1
SIGNALS
 50
0.000002504478
 41
1.03703698021
  7
TXT
100
AcDbText
  0
TEXT
  5
2BD
100
AcDbEntity
  8
0
  6
CONTINUOUS
 62
          15
100
AcDbText
 10
-7.491188062299
 20
-38.100315980613
 30
0.0
 40
0.990000009537
  1
1
 50
0.000002504478
 41
0.999999969897
  7
TXT
100
AcDbText
  0
TEXT
  5
2BE
100
AcDbEntity
  8
0
  6
CONTINUOUS
 62
          15
100
AcDbText
 10
-2.537185681935
 20
-38.102722324431
 30
0.0
 40
0.990600049496
  1
2
 50
0.000002504478
 41
0.999999894702
  7
TXT
100
AcDbText
  0
TEXT
  5
2BF
100
AcDbEntity
  8
0
  6
CONTINUOUS
 62
          15
100
AcDbText
 10
-0.12419129717
 20
-38.102722324431
 30
0.0
 40
0.990600049496
  1
2
 50
0.000002504478
 41
0.999999894702
  7
TXT
100
AcDbText
  0
TEXT
  5
2C0
100
AcDbEntity
  8
0
  6
CONTINUOUS
 62
          15
100
AcDbText
 10
-21.587184749544
 20
-40.642723096486
 30
0.0
 40
0.990600049496
  1
MUTE
 50
90.000005008956
 41
1.074073990504
  7
TXT
100
AcDbText
  0
TEXT
  5
2C1
100
AcDbEntity
  8
0
  6
CONTINUOUS
 62
          15
100
AcDbText
 10
-19.176181636751
 20
-40.640319837209
 30
0.0
 40
0.990600049496
  1
TEST
 50
89.999994991043
 41
1.074073990504
  7
TXT
100
AcDbText
  0
TEXT
  5
2C2
100
AcDbEntity
  8
0
  6
CONTINUOUS
 62
          15
100
AcDbText
 10
-16.634185634553
 20
-40.642723096486
 30
0.0
 40
0.990600049496
  1
COM
 50
90.000005008956
 41
1.111111030884
  7
TXT
100
AcDbText
  0
TEXT
  5
2C3
100
AcDbEntity
  8
0
  6
CONTINUOUS
 62
          15
100
AcDbText
 10
-14.094184719026
 20
-40.642723096486
 30
0.0
 40
0.990600049496
  1
AUD
 50
90.000005008956
 41
1.111111030884
  7
TXT
100
AcDbText
  0
TEXT
  5
2C4
100
AcDbEntity
  8
0
  6
CONTINUOUS
 62
          15
100
AcDbText
 10
-11.554191432893
 20
-40.642723096486
 30
0.0
 40
0.990600049496
  1
+Ve
 50
90.000005008956
 41
1.111111030884
  7
TXT
100
AcDbText
  0
TEXT
  5
2C5
100
AcDbEntity
  8
0
  6
CONTINUOUS
 62
          15
100
AcDbText
 10
-9.014190517366
 20
-40.642723096486
 30
0.0
 40
0.990600049496
  1
-Ve
 50
90.000005008956
 41
1.111111030884
  7
TXT
100
AcDbText
  0
TEXT
  5
2C6
100
AcDbEntity
  8
0
  6
CONTINUOUS
 62
          15
100
AcDbText
 10
-28.064182294476
 20
-40.642720155418
 30
0.0
 40
0.990000009537
  1
RELAY
 50
0.000002504478
 41
0.954545408022
  7
TXT
100
AcDbText
  0
TEXT
  5
2C7
100
AcDbEntity
  8
0
  6
CONTINUOUS
 62
          15
100
AcDbText
 10
-35.811183939436
 20
-37.21372179687
 30
0.0
 40
0.761999964714
  1
SDX15PS
 50
0.000002504478
 41
1.037037092082
  7
TXT
100
AcDbText
  0
TEXT
  5
2C8
100
AcDbEntity
  8
0
  6
CONTINUOUS
 62
          15
100
AcDbText
 10
-36.446186075666
 20
-39.62672381103
 30
0.0
 40
0.761999964714
  1
SERIAL No
 50
0.000002504478
 41
1.027777838617
  7
TXT
100
AcDbText
  0
TEXT
  5
2C9
100
AcDbEntity
  8
0
  6
CONTINUOUS
 62
          15
100
AcDbText
 10
-35.938182840803
 20
-38.356719538569
 30
0.0
 40
0.761999964714
  1
ISSUE B
 50
0.000002504478
 41
1.037037092082
  7
TXT
100
AcDbText
  0
LINE
  5
2CA
100
AcDbEntity
  8
0
  6
CONTINUOUS
 62
          15
100
AcDbLine
 10
-28.391185760498
 20
-41.772010803223
 30
0.0
 11
1.608810424805
 21
-41.772010803223
 31
0.0
  0
LINE
  5
2CB
100
AcDbEntity
  8
0
  6
CONTINUOUS
 62
          15
100
AcDbLine
 10
-37.620960235596
 20
-41.772010803223
 30
0.0
 11
-28.927890777588
 21
-41.772010803223
 31
0.0
  0
LINE
  5
2CC
100
AcDbEntity
  8
0
  6
CONTINUOUS
 62
          15
100
AcDbLine
 10
1.608810424805
 20
-36.007217407227
 30
0.0
 11
1.608810424805
 21
-41.772010803223
 31
0.0
  0
LINE
  5
2CD
100
AcDbEntity
  8
0
  6
CONTINUOUS
 62
          15
100
AcDbLine
 10
-3.391189575195
 20
-36.007217407227
 30
0.0
 11
-3.391189575195
 21
-38.957122802734
 31
0.0
  0
LINE
  5
2CE
100
AcDbEntity
  8
0
  6
CONTINUOUS
 62
          15
100
AcDbLine
 10
-8.391189575195
 20
-36.007217407227
 30
0.0
 11
-8.391189575195
 21
-41.772010803223
 31
0.0
  0
LINE
  5
2CF
100
AcDbEntity
  8
0
  6
CONTINUOUS
 62
          15
100
AcDbLine
 10
-28.391185760498
 20
-36.007217407227
 30
0.0
 11
-28.391185760498
 21
-41.772010803223
 31
0.0
  0
LINE
  5
2D0
100
AcDbEntity
  8
0
  6
CONTINUOUS
 62
          15
100
AcDbLine
 10
-23.391185760498
 20
-36.007217407227
 30
0.0
 11
-23.391185760498
 21
-41.772010803223
 31
0.0
  0
LINE
  5
2D1
100
AcDbEntity
  8
0
  6
CONTINUOUS
 62
          15
100
AcDbLine
 10
-15.891189575195
 20
-36.007217407227
 30
0.0
 11
-15.891189575195
 21
-41.772010803223
 31
0.0
  0
LINE
  5
2D2
100
AcDbEntity
  8
0
  6
CONTINUOUS
 62
          15
100
AcDbLine
 10
-8.391189575195
 20
-38.957122802734
 30
0.0
 11
1.608810424805
 21
-38.957122802734
 31
0.0
  0
LINE
  5
2D3
100
AcDbEntity
  8
0
  6
CONTINUOUS
 62
          15
100
AcDbLine
 10
-37.620960235596
 20
-35.163139343262
 30
0.0
 11
-28.927890777588
 21
-35.163139343262
 31
0.0
  0
LINE
  5
2D4
100
AcDbEntity
  8
0
  6
CONTINUOUS
 62
          15
100
AcDbLine
 10
-28.927890777588
 20
-35.163139343262
 30
0.0
 11
-28.927890777588
 21
-41.772010803223
 31
0.0
  0
LINE
  5
2D5
100
AcDbEntity
  8
0
  6
CONTINUOUS
 62
          15
100
AcDbLine
 10
-37.620960235596
 20
-35.163139343262
 30
0.0
 11
-37.620960235596
 21
-41.772010803223
 31
0.0
  0
TEXT
  5
2D6
100
AcDbEntity
  8
0
  6
CONTINUOUS
 62
          15
100
AcDbText
 10
6.946342455279
 20
-31.491536073387
 30
0.0
 40
0.990000009537
  1
L
 50
0.000002504478
 41
0.954545408022
  7
TXT
100
AcDbText
  0
TEXT
  5
2D7
100
AcDbEntity
  8
0
  6
CONTINUOUS
 62
          15
100
AcDbText
 10
11.966285692584
 20
-31.613919191062
 30
0.0
 40
0.990000009537
  1
N
 50
0.000002504478
 41
0.954545408022
  7
TXT
100
AcDbText
  0
ELLIPSE
  5
2D8
100
AcDbEntity
  8
0
  6
CONTINUOUS
 62
          15
100
AcDbEllipse
 10
-10.367683410645
 20
-34.92652130127
 30
0.0
 11
33.75
 21
0.0
 31
0.0
210
0.0
220
0.0
230
1.0
 40
0.518518518519
 41
0.0
 42
6.2831853071795862
  0
LINE
  5
2D9
100
AcDbEntity
  8
0
  6
CONTINUOUS
 62
          15
100
AcDbLine
 10
8.347694396973
 20
-32.254753112793
 30
0.0
 11
11.480659484863
 21
-32.254753112793
 31
0.0
  0
LINE
  5
2DA
100
AcDbEntity
  8
0
  6
CONTINUOUS
 62
          15
100
AcDbLine
 10
8.81583404541
 20
-32.866683959961
 30
0.0
 11
10.904487609863
 21
-32.866683959961
 31
0.0
  0
LINE
  5
2DB
100
AcDbEntity
  8
0
  6
CONTINUOUS
 62
          15
100
AcDbLine
 10
9.283988952637
 20
-33.478614807129
 30
0.0
 11
10.328300476074
 21
-33.478614807129
 31
0.0
  0
LINE
  5
2DC
100
AcDbEntity
  8
0
  6
CONTINUOUS
 62
          15
100
AcDbLine
 10
9.752128601074
 20
-29.593719482422
 30
0.0
 11
9.752128601074
 21
-32.254753112793
 31
0.0
  0
LINE
  5
2DD
100
AcDbEntity
  8
0
  6
CONTINUOUS
 62
          15
100
AcDbLine
 10
-28.419788360596
 20
-32.42652130127
 30
0.0
 11
1.564910888672
 21
-32.42652130127
 31
0.0
  0
LINE
  5
2DE
100
AcDbEntity
  8
0
  6
CONTINUOUS
 62
          15
100
AcDbLine
 10
-24.131549835205
 20
-31.121849060059
 30
0.0
 11
-24.998310089111
 21
-30.255088806152
 31
0.0
  0
ELLIPSE
  5
2DF
100
AcDbEntity
  8
0
  6
CONTINUOUS
 62
          15
100
AcDbEllipse
 10
-24.554294586182
 20
-30.683265686035
 30
0.0
 11
0.768914006549423
 21
0.024038522303254
 31
0.0
210
0.0
220
0.0
230
1.0
 40
0.692971446489
 41
0.0
 42
6.2831853071795862
  0
LINE
  5
2E0
100
AcDbEntity
  8
0
  6
CONTINUOUS
 62
          15
100
AcDbLine
 10
-26.679958343506
 20
-31.104621887207
 30
0.0
 11
-27.546718597412
 21
-30.237861633301
 31
0.0
  0
ELLIPSE
  5
2E1
100
AcDbEntity
  8
0
  6
CONTINUOUS
 62
          15
100
AcDbEllipse
 10
-27.102703094482
 20
-30.666038513184
 30
0.0
 11
0.768914006549423
 21
0.024038522303254
 31
0.0
210
0.0
220
0.0
230
1.0
 40
0.692971446489
 41
0.0
 42
6.2831853071795862
  0
LINE
  5
2E2
100
AcDbEntity
  8
0
  6
CONTINUOUS
 62
          15
100
AcDbLine
 10
-21.682018280029
 20
-31.104621887207
 30
0.0
 11
-22.548778533936
 21
-30.237861633301
 31
0.0
  0
ELLIPSE
  5
2E3
100
AcDbEntity
  8
0
  6
CONTINUOUS
 62
          15
100
AcDbEllipse
 10
-22.104763031006
 20
-30.666038513184
 30
0.0
 11
0.768914006549423
 21
0.024038522303254
 31
0.0
210
0.0
220
0.0
230
1.0
 40
0.692971446489
 41
0.0
 42
6.2831853071795862
  0
LINE
  5
2E4
100
AcDbEntity
  8
0
  6
CONTINUOUS
 62
          15
100
AcDbLine
 10
-19.231105804443
 20
-31.104621887207
 30
0.0
 11
-20.09786605835
 21
-30.237861633301
 31
0.0
  0
ELLIPSE
  5
2E5
100
AcDbEntity
  8
0
  6
CONTINUOUS
 62
          15
100
AcDbEllipse
 10
-19.65385055542
 20
-30.666038513184
 30
0.0
 11
0.768914006549423
 21
0.024038522303254
 31
0.0
210
0.0
220
0.0
230
1.0
 40
0.692971446489
 41
0.0
 42
6.2831853071795862
  0
LINE
  5
2E6
100
AcDbEntity
  8
0
  6
CONTINUOUS
 62
          15
100
AcDbLine
 10
-16.68408203125
 20
-31.104621887207
 30
0.0
 11
-17.550842285156
 21
-30.237861633301
 31
0.0
  0
ELLIPSE
  5
2E7
100
AcDbEntity
  8
0
  6
CONTINUOUS
 62
          15
100
AcDbEllipse
 10
-17.106826782227
 20
-30.666038513184
 30
0.0
 11
0.768914006549423
 21
0.024038522303254
 31
0.0
210
0.0
220
0.0
230
1.0
 40
0.692971446489
 41
0.0
 42
6.2831853071795862
  0
LINE
  5
2E8
100
AcDbEntity
  8
0
  6
CONTINUOUS
 62
          15
100
AcDbLine
 10
-14.233169555664
 20
-31.104621887207
 30
0.0
 11
-15.09992980957
 21
-30.237861633301
 31
0.0
  0
ELLIPSE
  5
2E9
100
AcDbEntity
  8
0
  6
CONTINUOUS
 62
          15
100
AcDbEllipse
 10
-14.655914306641
 20
-30.666038513184
 30
0.0
 11
0.768914006549423
 21
0.024038522303254
 31
0.0
210
0.0
220
0.0
230
1.0
 40
0.692971446489
 41
0.0
 42
6.2831853071795862
  0
LINE
  5
2EA
100
AcDbEntity
  8
0
  6
CONTINUOUS
 62
          15
100
AcDbLine
 10
-11.636573791504
 20
-31.117050170898
 30
0.0
 11
-12.50333404541
 21
-30.250289916992
 31
0.0
  0
ELLIPSE
  5
2EB
100
AcDbEntity
  8
0
  6
CONTINUOUS
 62
          15
100
AcDbEllipse
 10
-12.05931854248
 20
-30.678466796875
 30
0.0
 11
0.768914006549423
 21
0.024038522303254
 31
0.0
210
0.0
220
0.0
230
1.0
 40
0.692971446489
 41
0.0
 42
6.2831853071795862
  0
LINE
  5
2EC
100
AcDbEntity
  8
0
  6
CONTINUOUS
 62
          15
100
AcDbLine
 10
-9.01293182373
 20
-31.117050170898
 30
0.0
 11
-9.879692077637
 21
-30.250289916992
 31
0.0
  0
ELLIPSE
  5
2ED
100
AcDbEntity
  8
0
  6
CONTINUOUS
 62
          15
100
AcDbEllipse
 10
-9.435676574707
 20
-30.678466796875
 30
0.0
 11
0.768914006549423
 21
0.024038522303254
 31
0.0
210
0.0
220
0.0
230
1.0
 40
0.692971446489
 41
0.0
 42
6.2831853071795862
  0
LINE
  5
2EE
100
AcDbEntity
  8
0
  6
CONTINUOUS
 62
          15
100
AcDbLine
 10
-6.680793762207
 20
-31.117050170898
 30
0.0
 11
-7.547554016113
 21
-30.250289916992
 31
0.0
  0
ELLIPSE
  5
2EF
100
AcDbEntity
  8
0
  6
CONTINUOUS
 62
          15
100
AcDbEllipse
 10
-7.103538513184
 20
-30.678466796875
 30
0.0
 11
0.768914006549423
 21
0.024038522303254
 31
0.0
210
0.0
220
0.0
230
1.0
 40
0.692971446489
 41
0.0
 42
6.2831853071795862
  0
LINE
  5
2F0
100
AcDbEntity
  8
0
  6
CONTINUOUS
 62
          15
100
AcDbLine
 10
-4.390312194824
 20
-31.117050170898
 30
0.0
 11
-5.25707244873
 21
-30.250289916992
 31
0.0
  0
ELLIPSE
  5
2F1
100
AcDbEntity
  8
0
  6
CONTINUOUS
 62
          15
100
AcDbEllipse
 10
-4.813056945801
 20
-30.678466796875
 30
0.0
 11
0.768914006549423
 21
0.024038522303254
 31
0.0
210
0.0
220
0.0
230
1.0
 40
0.692971446489
 41
0.0
 42
6.2831853071795862
  0
LINE
  5
2F2
100
AcDbEntity
  8
0
  6
CONTINUOUS
 62
          15
100
AcDbLine
 10
-1.72501373291
 20
-31.117050170898
 30
0.0
 11
-2.591773986816
 21
-30.250289916992
 31
0.0
  0
ELLIPSE
  5
2F3
100
AcDbEntity
  8
0
  6
CONTINUOUS
 62
          15
100
AcDbEllipse
 10
-2.147758483887
 20
-30.678466796875
 30
0.0
 11
0.768914006549423
 21
0.024038522303254
 31
0.0
210
0.0
220
0.0
230
1.0
 40
0.692971446489
 41
0.0
 42
6.2831853071795862
  0
LINE
  5
2F4
100
AcDbEntity
  8
0
  6
CONTINUOUS
 62
          15
100
AcDbLine
 10
0.690406799316
 20
-31.117050170898
 30
0.0
 11
-0.17635345459
 21
-30.250289916992
 31
0.0
  0
ELLIPSE
  5
2F5
100
AcDbEntity
  8
0
  6
CONTINUOUS
 62
          15
100
AcDbEllipse
 10
0.26766204834
 20
-30.678466796875
 30
0.0
 11
0.768914006549423
 21
0.024038522303254
 31
0.0
210
0.0
220
0.0
230
1.0
 40
0.692971446489
 41
0.0
 42
6.2831853071795862
  0
LINE
  5
2F6
100
AcDbEntity
  8
0
  6
CONTINUOUS
 62
          15
100
AcDbLine
 10
7.632820129395
 20
-25.431518554688
 30
0.0
 11
6.766059875488
 21
-24.564758300781
 31
0.0
  0
ELLIPSE
  5
2F7
100
AcDbEntity
  8
0
  6
CONTINUOUS
 62
          15
100
AcDbEllipse
 10
7.210075378418
 20
-24.992935180664
 30
0.0
 11
0.768914006549423
 21
0.024038522303254
 31
0.0
210
0.0
220
0.0
230
1.0
 40
0.692971446489
 41
0.0
 42
6.2831853071795862
  0
LINE
  5
2F8
100
AcDbEntity
  8
0
  6
CONTINUOUS
 62
          15
100
AcDbLine
 10
10.179847717285
 20
-25.431518554688
 30
0.0
 11
9.313087463379
 21
-24.564758300781
 31
0.0
  0
ELLIPSE
  5
2F9
100
AcDbEntity
  8
0
  6
CONTINUOUS
 62
          15
100
AcDbEllipse
 10
9.757102966309
 20
-24.992935180664
 30
0.0
 11
0.768914006549423
 21
0.024038522303254
 31
0.0
210
0.0
220
0.0
230
1.0
 40
0.692971446489
 41
0.0
 42
6.2831853071795862
  0
LINE
  5
2FA
100
AcDbEntity
  8
0
  6
CONTINUOUS
 62
          15
100
AcDbLine
 10
12.726875305176
 20
-25.431518554688
 30
0.0
 11
11.86011505127
 21
-24.564758300781
 31
0.0
  0
ELLIPSE
  5
2FB
100
AcDbEntity
  8
0
  6
CONTINUOUS
 62
          15
100
AcDbEllipse
 10
12.304130554199
 20
-24.992935180664
 30
0.0
 11
0.768914006549423
 21
0.024038522303254
 31
0.0
210
0.0
220
0.0
230
1.0
 40
0.692971446489
 41
0.0
 42
6.2831853071795862
  0
LINE
  5
2FC
100
AcDbEntity
  8
0
  6
CONTINUOUS
 62
          15
100
AcDbLine
 10
5.717811584473
 20
-26.680839538574
 30
0.0
 11
13.33780670166
 21
-26.680839538574
 31
0.0
  0
LINE
  5
2FD
100
AcDbEntity
  8
0
  6
CONTINUOUS
 62
          15
100
AcDbLine
 10
-2.817085266113
 20
-33.260345458984
 30
0.0
 11
-1.471488952637
 21
-33.260345458984
 31
0.0
  0
LINE
  5
2FE
100
AcDbEntity
  8
0
  6
CONTINUOUS
 62
          15
100
AcDbLine
 10
-1.471488952637
 20
-33.260345458984
 30
0.0
 11
-1.471488952637
 21
-35.183433532715
 31
0.0
  0
LINE
  5
2FF
100
AcDbEntity
  8
0
  6
CONTINUOUS
 62
          15
100
AcDbLine
 10
-1.471488952637
 20
-35.183433532715
 30
0.0
 11
-2.817085266113
 21
-35.183433532715
 31
0.0
  0
LINE
  5
300
100
AcDbEntity
  8
0
  6
CONTINUOUS
 62
          15
100
AcDbLine
 10
-2.817085266113
 20
-35.183433532715
 30
0.0
 11
-2.817085266113
 21
-33.260345458984
 31
0.0
  0
LINE
  5
301
100
AcDbEntity
  8
0
  6
CONTINUOUS
 62
          15
100
AcDbLine
 10
-2.817085266113
 20
-34.558433532715
 30
0.0
 11
-1.471488952637
 21
-34.558433532715
 31
0.0
  0
LINE
  5
302
100
AcDbEntity
  8
0
  6
CONTINUOUS
 62
          15
100
AcDbLine
 10
-5.497627258301
 20
-33.260345458984
 30
0.0
 11
-4.152030944824
 21
-33.260345458984
 31
0.0
  0
LINE
  5
303
100
AcDbEntity
  8
0
  6
CONTINUOUS
 62
          15
100
AcDbLine
 10
-4.152030944824
 20
-33.260345458984
 30
0.0
 11
-4.152030944824
 21
-35.183433532715
 31
0.0
  0
LINE
  5
304
100
AcDbEntity
  8
0
  6
CONTINUOUS
 62
          15
100
AcDbLine
 10
-4.152030944824
 20
-35.183433532715
 30
0.0
 11
-5.497627258301
 21
-35.183433532715
 31
0.0
  0
LINE
  5
305
100
AcDbEntity
  8
0
  6
CONTINUOUS
 62
          15
100
AcDbLine
 10
-5.497627258301
 20
-35.183433532715
 30
0.0
 11
-5.497627258301
 21
-33.260345458984
 31
0.0
  0
LINE
  5
306
100
AcDbEntity
  8
0
  6
CONTINUOUS
 62
          15
100
AcDbLine
 10
-5.497627258301
 20
-34.558433532715
 30
0.0
 11
-4.152030944824
 21
-34.558433532715
 31
0.0
  0
LINE
  5
307
100
AcDbEntity
  8
0
  6
CONTINUOUS
 62
          15
100
AcDbLine
 10
-0.369636535645
 20
-33.260345458984
 30
0.0
 11
0.975959777832
 21
-33.260345458984
 31
0.0
  0
LINE
  5
308
100
AcDbEntity
  8
0
  6
CONTINUOUS
 62
          15
100
AcDbLine
 10
0.975959777832
 20
-33.260345458984
 30
0.0
 11
0.975959777832
 21
-35.183433532715
 31
0.0
  0
LINE
  5
309
100
AcDbEntity
  8
0
  6
CONTINUOUS
 62
          15
100
AcDbLine
 10
0.975959777832
 20
-35.183433532715
 30
0.0
 11
-0.369636535645
 21
-35.183433532715
 31
0.0
  0
LINE
  5
30A
100
AcDbEntity
  8
0
  6
CONTINUOUS
 62
          15
100
AcDbLine
 10
-0.369636535645
 20
-35.183433532715
 30
0.0
 11
-0.369636535645
 21
-33.260345458984
 31
0.0
  0
LINE
  5
30B
100
AcDbEntity
  8
0
  6
CONTINUOUS
 62
          15
100
AcDbLine
 10
-0.369636535645
 20
-34.558433532715
 30
0.0
 11
0.975959777832
 21
-34.558433532715
 31
0.0
  0
LINE
  5
30C
100
AcDbEntity
  8
0
  6
CONTINUOUS
 62
          15
100
AcDbLine
 10
-10.04288482666
 20
-33.261054992676
 30
0.0
 11
-8.697288513184
 21
-33.261054992676
 31
0.0
  0
LINE
  5
30D
100
AcDbEntity
  8
0
  6
CONTINUOUS
 62
          15
100
AcDbLine
 10
-8.697288513184
 20
-33.261054992676
 30
0.0
 11
-8.697288513184
 21
-35.184143066406
 31
0.0
  0
LINE
  5
30E
100
AcDbEntity
  8
0
  6
CONTINUOUS
 62
          15
100
AcDbLine
 10
-8.697288513184
 20
-35.184143066406
 30
0.0
 11
-10.04288482666
 21
-35.184143066406
 31
0.0
  0
LINE
  5
30F
100
AcDbEntity
  8
0
  6
CONTINUOUS
 62
          15
100
AcDbLine
 10
-10.04288482666
 20
-35.184143066406
 30
0.0
 11
-10.04288482666
 21
-33.261054992676
 31
0.0
  0
LINE
  5
310
100
AcDbEntity
  8
0
  6
CONTINUOUS
 62
          15
100
AcDbLine
 10
-10.04288482666
 20
-34.559143066406
 30
0.0
 11
-8.697288513184
 21
-34.559143066406
 31
0.0
  0
LINE
  5
311
100
AcDbEntity
  8
0
  6
CONTINUOUS
 62
          15
100
AcDbLine
 10
-12.723426818848
 20
-33.261054992676
 30
0.0
 11
-11.377830505371
 21
-33.261054992676
 31
0.0
  0
LINE
  5
312
100
AcDbEntity
  8
0
  6
CONTINUOUS
 62
          15
100
AcDbLine
 10
-11.377830505371
 20
-33.261054992676
 30
0.0
 11
-11.377830505371
 21
-35.184143066406
 31
0.0
  0
LINE
  5
313
100
AcDbEntity
  8
0
  6
CONTINUOUS
 62
          15
100
AcDbLine
 10
-11.377830505371
 20
-35.184143066406
 30
0.0
 11
-12.723426818848
 21
-35.184143066406
 31
0.0
  0
LINE
  5
314
100
AcDbEntity
  8
0
  6
CONTINUOUS
 62
          15
100
AcDbLine
 10
-12.723426818848
 20
-35.184143066406
 30
0.0
 11
-12.723426818848
 21
-33.261054992676
 31
0.0
  0
LINE
  5
315
100
AcDbEntity
  8
0
  6
CONTINUOUS
 62
          15
100
AcDbLine
 10
-12.723426818848
 20
-34.559143066406
 30
0.0
 11
-11.377830505371
 21
-34.559143066406
 31
0.0
  0
LINE
  5
316
100
AcDbEntity
  8
0
  6
CONTINUOUS
 62
          15
100
AcDbLine
 10
-7.77025604248
 20
-33.261054992676
 30
0.0
 11
-6.424659729004
 21
-33.261054992676
 31
0.0
  0
LINE
  5
317
100
AcDbEntity
  8
0
  6
CONTINUOUS
 62
          15
100
AcDbLine
 10
-6.424659729004
 20
-33.261054992676
 30
0.0
 11
-6.424659729004
 21
-35.184143066406
 31
0.0
  0
LINE
  5
318
100
AcDbEntity
  8
0
  6
CONTINUOUS
 62
          15
100
AcDbLine
 10
-6.424659729004
 20
-35.184143066406
 30
0.0
 11
-7.77025604248
 21
-35.184143066406
 31
0.0
  0
LINE
  5
319
100
AcDbEntity
  8
0
  6
CONTINUOUS
 62
          15
100
AcDbLine
 10
-7.77025604248
 20
-35.184143066406
 30
0.0
 11
-7.77025604248
 21
-33.261054992676
 31
0.0
  0
LINE
  5
31A
100
AcDbEntity
  8
0
  6
CONTINUOUS
 62
          15
100
AcDbLine
 10
-7.77025604248
 20
-34.559143066406
 30
0.0
 11
-6.424659729004
 21
-34.559143066406
 31
0.0
  0
LINE
  5
31B
100
AcDbEntity
  8
0
  6
CONTINUOUS
 62
          15
100
AcDbLine
 10
-17.676597595215
 20
-33.261054992676
 30
0.0
 11
-16.331001281738
 21
-33.261054992676
 31
0.0
  0
LINE
  5
31C
100
AcDbEntity
  8
0
  6
CONTINUOUS
 62
          15
100
AcDbLine
 10
-16.331001281738
 20
-33.261054992676
 30
0.0
 11
-16.331001281738
 21
-35.184143066406
 31
0.0
  0
LINE
  5
31D
100
AcDbEntity
  8
0
  6
CONTINUOUS
 62
          15
100
AcDbLine
 10
-16.331001281738
 20
-35.184143066406
 30
0.0
 11
-17.676597595215
 21
-35.184143066406
 31
0.0
  0
LINE
  5
31E
100
AcDbEntity
  8
0
  6
CONTINUOUS
 62
          15
100
AcDbLine
 10
-17.676597595215
 20
-35.184143066406
 30
0.0
 11
-17.676597595215
 21
-33.261054992676
 31
0.0
  0
LINE
  5
31F
100
AcDbEntity
  8
0
  6
CONTINUOUS
 62
          15
100
AcDbLine
 10
-17.676597595215
 20
-34.559143066406
 30
0.0
 11
-16.331001281738
 21
-34.559143066406
 31
0.0
  0
LINE
  5
320
100
AcDbEntity
  8
0
  6
CONTINUOUS
 62
          15
100
AcDbLine
 10
-20.357135772705
 20
-33.261054992676
 30
0.0
 11
-19.011539459229
 21
-33.261054992676
 31
0.0
  0
LINE
  5
321
100
AcDbEntity
  8
0
  6
CONTINUOUS
 62
          15
100
AcDbLine
 10
-19.011539459229
 20
-33.261054992676
 30
0.0
 11
-19.011539459229
 21
-35.184143066406
 31
0.0
  0
LINE
  5
322
100
AcDbEntity
  8
0
  6
CONTINUOUS
 62
          15
100
AcDbLine
 10
-19.011539459229
 20
-35.184143066406
 30
0.0
 11
-20.357135772705
 21
-35.184143066406
 31
0.0
  0
LINE
  5
323
100
AcDbEntity
  8
0
  6
CONTINUOUS
 62
          15
100
AcDbLine
 10
-20.357135772705
 20
-35.184143066406
 30
0.0
 11
-20.357135772705
 21
-33.261054992676
 31
0.0
  0
LINE
  5
324
100
AcDbEntity
  8
0
  6
CONTINUOUS
 62
          15
100
AcDbLine
 10
-20.357135772705
 20
-34.559143066406
 30
0.0
 11
-19.011539459229
 21
-34.559143066406
 31
0.0
  0
LINE
  5
325
100
AcDbEntity
  8
0
  6
CONTINUOUS
 62
          15
100
AcDbLine
 10
-15.403968811035
 20
-33.261054992676
 30
0.0
 11
-14.058372497559
 21
-33.261054992676
 31
0.0
  0
LINE
  5
326
100
AcDbEntity
  8
0
  6
CONTINUOUS
 62
          15
100
AcDbLine
 10
-14.058372497559
 20
-33.261054992676
 30
0.0
 11
-14.058372497559
 21
-35.184143066406
 31
0.0
  0
LINE
  5
327
100
AcDbEntity
  8
0
  6
CONTINUOUS
 62
          15
100
AcDbLine
 10
-14.058372497559
 20
-35.184143066406
 30
0.0
 11
-15.403968811035
 21
-35.184143066406
 31
0.0
  0
LINE
  5
328
100
AcDbEntity
  8
0
  6
CONTINUOUS
 62
          15
100
AcDbLine
 10
-15.403968811035
 20
-35.184143066406
 30
0.0
 11
-15.403968811035
 21
-33.261054992676
 31
0.0
  0
LINE
  5
329
100
AcDbEntity
  8
0
  6
CONTINUOUS
 62
          15
100
AcDbLine
 10
-15.403968811035
 20
-34.559143066406
 30
0.0
 11
-14.058372497559
 21
-34.559143066406
 31
0.0
  0
LINE
  5
32A
100
AcDbEntity
  8
0
  6
CONTINUOUS
 62
          15
100
AcDbLine
 10
-25.106349945068
 20
-33.261054992676
 30
0.0
 11
-23.760753631592
 21
-33.261054992676
 31
0.0
  0
LINE
  5
32B
100
AcDbEntity
  8
0
  6
CONTINUOUS
 62
          15
100
AcDbLine
 10
-23.760753631592
 20
-33.261054992676
 30
0.0
 11
-23.760753631592
 21
-35.184143066406
 31
0.0
  0
LINE
  5
32C
100
AcDbEntity
  8
0
  6
CONTINUOUS
 62
          15
100
AcDbLine
 10
-23.760753631592
 20
-35.184143066406
 30
0.0
 11
-25.106349945068
 21
-35.184143066406
 31
0.0
  0
LINE
  5
32D
100
AcDbEntity
  8
0
  6
CONTINUOUS
 62
          15
100
AcDbLine
 10
-25.106349945068
 20
-35.184143066406
 30
0.0
 11
-25.106349945068
 21
-33.261054992676
 31
0.0
  0
LINE
  5
32E
100
AcDbEntity
  8
0
  6
CONTINUOUS
 62
          15
100
AcDbLine
 10
-25.106349945068
 20
-34.559143066406
 30
0.0
 11
-23.760753631592
 21
-34.559143066406
 31
0.0
  0
LINE
  5
32F
100
AcDbEntity
  8
0
  6
CONTINUOUS
 62
          15
100
AcDbLine
 10
-27.786891937256
 20
-33.261054992676
 30
0.0
 11
-26.441295623779
 21
-33.261054992676
 31
0.0
  0
LINE
  5
330
100
AcDbEntity
  8
0
  6
CONTINUOUS
 62
          15
100
AcDbLine
 10
-26.441295623779
 20
-33.261054992676
 30
0.0
 11
-26.441295623779
 21
-35.184143066406
 31
0.0
  0
LINE
  5
331
100
AcDbEntity
  8
0
  6
CONTINUOUS
 62
          15
100
AcDbLine
 10
-26.441295623779
 20
-35.184143066406
 30
0.0
 11
-27.786891937256
 21
-35.184143066406
 31
0.0
  0
LINE
  5
332
100
AcDbEntity
  8
0
  6
CONTINUOUS
 62
          15
100
AcDbLine
 10
-27.786891937256
 20
-35.184143066406
 30
0.0
 11
-27.786891937256
 21
-33.261054992676
 31
0.0
  0
LINE
  5
333
100
AcDbEntity
  8
0
  6
CONTINUOUS
 62
          15
100
AcDbLine
 10
-27.786891937256
 20
-34.559143066406
 30
0.0
 11
-26.441295623779
 21
-34.559143066406
 31
0.0
  0
LINE
  5
334
100
AcDbEntity
  8
0
  6
CONTINUOUS
 62
          15
100
AcDbLine
 10
-22.833721160889
 20
-33.261054992676
 30
0.0
 11
-21.488124847412
 21
-33.261054992676
 31
0.0
  0
LINE
  5
335
100
AcDbEntity
  8
0
  6
CONTINUOUS
 62
          15
100
AcDbLine
 10
-21.488124847412
 20
-33.261054992676
 30
0.0
 11
-21.488124847412
 21
-35.184143066406
 31
0.0
  0
LINE
  5
336
100
AcDbEntity
  8
0
  6
CONTINUOUS
 62
          15
100
AcDbLine
 10
-21.488124847412
 20
-35.184143066406
 30
0.0
 11
-22.833721160889
 21
-35.184143066406
 31
0.0
  0
LINE
  5
337
100
AcDbEntity
  8
0
  6
CONTINUOUS
 62
          15
100
AcDbLine
 10
-22.833721160889
 20
-35.184143066406
 30
0.0
 11
-22.833721160889
 21
-33.261054992676
 31
0.0
  0
LINE
  5
338
100
AcDbEntity
  8
0
  6
CONTINUOUS
 62
          15
100
AcDbLine
 10
-22.833721160889
 20
-34.559143066406
 30
0.0
 11
-21.488124847412
 21
-34.559143066406
 31
0.0
  0
LINE
  5
339
100
AcDbEntity
  8
0
  6
CONTINUOUS
 62
          15
100
AcDbLine
 10
9.09366607666
 20
-27.225746154785
 30
0.0
 11
10.439262390137
 21
-27.225746154785
 31
0.0
  0
LINE
  5
33A
100
AcDbEntity
  8
0
  6
CONTINUOUS
 62
          15
100
AcDbLine
 10
10.439262390137
 20
-27.225746154785
 30
0.0
 11
10.439262390137
 21
-29.148834228516
 31
0.0
  0
LINE
  5
33B
100
AcDbEntity
  8
0
  6
CONTINUOUS
 62
          15
100
AcDbLine
 10
10.439262390137
 20
-29.148834228516
 30
0.0
 11
9.09366607666
 21
-29.148834228516
 31
0.0
  0
LINE
  5
33C
100
AcDbEntity
  8
0
  6
CONTINUOUS
 62
          15
100
AcDbLine
 10
9.09366607666
 20
-29.148834228516
 30
0.0
 11
9.09366607666
 21
-27.225746154785
 31
0.0
  0
LINE
  5
33D
100
AcDbEntity
  8
0
  6
CONTINUOUS
 62
          15
100
AcDbLine
 10
9.09366607666
 20
-28.523834228516
 30
0.0
 11
10.439262390137
 21
-28.523834228516
 31
0.0
  0
LINE
  5
33E
100
AcDbEntity
  8
0
  6
CONTINUOUS
 62
          15
100
AcDbLine
 10
6.413124084473
 20
-27.225746154785
 30
0.0
 11
7.758720397949
 21
-27.225746154785
 31
0.0
  0
LINE
  5
33F
100
AcDbEntity
  8
0
  6
CONTINUOUS
 62
          15
100
AcDbLine
 10
7.758720397949
 20
-27.225746154785
 30
0.0
 11
7.758720397949
 21
-29.148834228516
 31
0.0
  0
LINE
  5
340
100
AcDbEntity
  8
0
  6
CONTINUOUS
 62
          15
100
AcDbLine
 10
7.758720397949
 20
-29.148834228516
 30
0.0
 11
6.413124084473
 21
-29.148834228516
 31
0.0
  0
LINE
  5
341
100
AcDbEntity
  8
0
  6
CONTINUOUS
 62
          15
100
AcDbLine
 10
6.413124084473
 20
-29.148834228516
 30
0.0
 11
6.413124084473
 21
-27.225746154785
 31
0.0
  0
LINE
  5
342
100
AcDbEntity
  8
0
  6
CONTINUOUS
 62
          15
100
AcDbLine
 10
6.413124084473
 20
-28.523834228516
 30
0.0
 11
7.758720397949
 21
-28.523834228516
 31
0.0
  0
LINE
  5
343
100
AcDbEntity
  8
0
  6
CONTINUOUS
 62
          15
100
AcDbLine
 10
11.541114807129
 20
-27.225746154785
 30
0.0
 11
12.886711120605
 21
-27.225746154785
 31
0.0
  0
LINE
  5
344
100
AcDbEntity
  8
0
  6
CONTINUOUS
 62
          15
100
AcDbLine
 10
12.886711120605
 20
-27.225746154785
 30
0.0
 11
12.886711120605
 21
-29.148834228516
 31
0.0
  0
LINE
  5
345
100
AcDbEntity
  8
0
  6
CONTINUOUS
 62
          15
100
AcDbLine
 10
12.886711120605
 20
-29.148834228516
 30
0.0
 11
11.541114807129
 21
-29.148834228516
 31
0.0
  0
LINE
  5
346
100
AcDbEntity
  8
0
  6
CONTINUOUS
 62
          15
100
AcDbLine
 10
11.541114807129
 20
-29.148834228516
 30
0.0
 11
11.541114807129
 21
-27.225746154785
 31
0.0
  0
LINE
  5
347
100
AcDbEntity
  8
0
  6
CONTINUOUS
 62
          15
100
AcDbLine
 10
11.541114807129
 20
-28.523834228516
 30
0.0
 11
12.886711120605
 21
-28.523834228516
 31
0.0
  0
ENDBLK
  5
348
100
AcDbEntity
  8
0
  6
BYBLOCK
 62
           0
100
AcDbBlockEnd
  0
BLOCK
  5
349
100
AcDbEntity
  8
0
100
AcDbBlockBegin
  2
SDXPIC1_6
 70
          64
 10
0.0
 20
0.0
 30
0.0
  3
SDXPIC1_6
  1

  0
LINE
  5
34A
100
AcDbEntity
  8
0
  6
CONTINUOUS
 62
          15
100
AcDbLine
 10
-54.900009155273
 20
8.0
 30
0.0
 11
-54.900009155273
 21
91.400024414063
 31
0.0
  0
LINE
  5
34B
100
AcDbEntity
  8
0
  6
CONTINUOUS
 62
          15
100
AcDbLine
 10
54.900024414063
 20
8.0
 30
0.0
 11
54.900024414063
 21
91.400024414063
 31
0.0
  0
LINE
  5
34C
100
AcDbEntity
  8
0
  6
CONTINUOUS
 62
          15
100
AcDbLine
 10
-54.900009155273
 20
8.0
 30
0.0
 11
54.900024414063
 21
8.0
 31
0.0
  0
LINE
  5
34D
100
AcDbEntity
  8
0
  6
CONTINUOUS
 62
          15
100
AcDbLine
 10
-54.900009155273
 20
91.400024414063
 30
0.0
 11
54.900024414063
 21
91.400024414063
 31
0.0
  0
LINE
  5
34E
100
AcDbEntity
  8
0
  6
CONTINUOUS
 62
          15
100
AcDbLine
 10
-60.900009155273
 20
2.0
 30
0.0
 11
-60.900009155273
 21
97.400024414063
 31
0.0
  0
LINE
  5
34F
100
AcDbEntity
  8
0
  6
CONTINUOUS
 62
          15
100
AcDbLine
 10
60.900024414063
 20
2.0
 30
0.0
 11
60.900024414063
 21
97.400024414063
 31
0.0
  0
LINE
  5
350
100
AcDbEntity
  8
0
  6
CONTINUOUS
 62
          15
100
AcDbLine
 10
-62.900009155273
 20
0.0
 30
0.0
 11
-62.900009155273
 21
99.400024414063
 31
0.0
  0
LINE
  5
351
100
AcDbEntity
  8
0
  6
CONTINUOUS
 62
          15
100
AcDbLine
 10
62.900024414063
 20
0.0
 30
0.0
 11
62.900024414063
 21
99.400024414063
 31
0.0
  0
LINE
  5
352
100
AcDbEntity
  8
0
  6
CONTINUOUS
 62
          15
100
AcDbLine
 10
-62.900009155273
 20
99.400024414063
 30
0.0
 11
62.900024414063
 21
99.400024414063
 31
0.0
  0
LINE
  5
353
100
AcDbEntity
  8
0
  6
CONTINUOUS
 62
          15
100
AcDbLine
 10
-62.900009155273
 20
0.0
 30
0.0
 11
62.900024414063
 21
0.0
 31
0.0
  0
LINE
  5
354
100
AcDbEntity
  8
0
  6
CONTINUOUS
 62
          15
100
AcDbLine
 10
-60.900009155273
 20
97.400024414063
 30
0.0
 11
60.900024414063
 21
97.400024414063
 31
0.0
  0
LINE
  5
355
100
AcDbEntity
  8
0
  6
CONTINUOUS
 62
          15
100
AcDbLine
 10
-60.900009155273
 20
2.0
 30
0.0
 11
60.900024414063
 21
2.0
 31
0.0
  0
ELLIPSE
  5
356
100
AcDbEntity
  8
0
  6
CONTINUOUS
 62
          15
100
AcDbEllipse
 10
25.460205078125
 20
23.210540771484
 30
0.0
 11
0.0000000000000001
 21
0.9874100685119628
 31
0.0
210
0.0
220
0.0
230
1.0
 40
1.0
 41
-3.9413493434574889
 42
-0.5434671203281989
  0
ELLIPSE
  5
357
100
AcDbEntity
  8
0
  6
CONTINUOUS
 62
          15
100
AcDbEllipse
 10
25.855163574219
 20
26.271514892578
 30
0.0
 11
0.0000000000000001
 21
0.9874100685119628
 31
0.0
210
0.0
220
0.0
230
1.0
 40
1.0
 41
-0.7111038724568175
 42
-3.6850598613408172
  0
ELLIPSE
  5
358
100
AcDbEntity
  8
0
  6
CONTINUOUS
 62
          15
100
AcDbEllipse
 10
25.657684326172
 20
23.506744384766
 30
0.0
 11
0.0000000000000001
 21
1.4811151027679443
 31
0.0
210
0.0
220
0.0
230
1.0
 40
1.0
 41
-3.7608655254032968
 42
-0.5434672395375093
  0
ELLIPSE
  5
359
100
AcDbEntity
  8
0
  6
CONTINUOUS
 62
          15
100
AcDbEllipse
 10
25.657684326172
 20
25.975280761719
 30
0.0
 11
0.0000000000000001
 21
1.4811151027679443
 31
0.0
210
0.0
220
0.0
230
1.0
 40
1.0
 41
-0.6732547442105001
 42
-3.6850598613407959
  0
LINE
  5
35A
100
AcDbEntity
  8
0
  6
CONTINUOUS
 62
          15
100
AcDbLine
 10
24.176574707031
 20
22.025634765625
 30
0.0
 11
24.176574707031
 21
23.013061523438
 31
0.0
  0
LINE
  5
35B
100
AcDbEntity
  8
0
  6
CONTINUOUS
 62
          15
100
AcDbLine
 10
27.138793945313
 20
26.468994140625
 30
0.0
 11
27.138793945313
 21
27.456390380859
 31
0.0
  0
LINE
  5
35C
100
AcDbEntity
  8
0
  6
CONTINUOUS
 62
          15
100
AcDbLine
 10
24.176574707031
 20
22.025634765625
 30
0.0
 11
24.275360107422
 21
22.025634765625
 31
0.0
  0
LINE
  5
35D
100
AcDbEntity
  8
0
  6
CONTINUOUS
 62
          15
100
AcDbLine
 10
27.035369873047
 20
27.456390380859
 30
0.0
 11
27.138793945313
 21
27.456390380859
 31
0.0
  0
LINE
  5
35E
100
AcDbEntity
  8
0
  6
CONTINUOUS
 62
          15
100
AcDbLine
 10
27.138793945313
 20
26.468994140625
 30
0.0
 11
26.499603271484
 21
27.019622802734
 31
0.0
  0
LINE
  5
35F
100
AcDbEntity
  8
0
  6
CONTINUOUS
 62
          15
100
AcDbLine
 10
24.176574707031
 20
23.114654541016
 30
0.0
 11
24.752044677734
 21
22.522399902344
 31
0.0
  0
LINE
  5
360
100
AcDbEntity
  8
0
  6
CONTINUOUS
 62
          15
100
AcDbLine
 10
24.176574707031
 20
23.114654541016
 30
0.0
 11
24.176574707031
 21
22.025634765625
 31
0.0
  0
ELLIPSE
  5
361
100
AcDbEntity
  8
0
  6
CONTINUOUS
 62
          15
100
AcDbEllipse
 10
24.606079101563
 20
22.031463623047
 30
0.0
 11
0.0
 21
0.3307765424251556
 31
0.0
210
0.0
220
0.0
230
1.0
 40
1.0
 41
-0.6192729036000643
 42
-4.6947491923955029
  0
ELLIPSE
  5
362
100
AcDbEntity
  8
0
  6
CONTINUOUS
 62
          15
100
AcDbEllipse
 10
26.731353759766
 20
27.402893066406
 30
0.0
 11
0.0
 21
0.3086785078048706
 31
0.0
210
0.0
220
0.0
230
1.0
 40
1.0
 41
-3.9231937686588916
 42
-1.3966061482814114
  0
LINE
  5
363
100
AcDbEntity
  8
0
  6
CONTINUOUS
 62
          15
100
AcDbLine
 10
25.344543457031
 20
25.426361083984
 30
0.0
 11
26.423583984375
 21
24.774444580078
 31
0.0
  0
LINE
  5
364
100
AcDbEntity
  8
0
  6
CONTINUOUS
 62
          15
100
AcDbLine
 10
24.891784667969
 20
24.707550048828
 30
0.0
 11
25.970794677734
 21
24.0556640625
 31
0.0
  0
LINE
  5
365
100
AcDbEntity
  8
0
  6
CONTINUOUS
 62
          15
100
AcDbLine
 10
28.521179199219
 20
22.519348144531
 30
0.0
 11
28.521179199219
 21
26.962707519531
 31
0.0
  0
LINE
  5
366
100
AcDbEntity
  8
0
  6
CONTINUOUS
 62
          15
100
AcDbLine
 10
31.878356933594
 20
24.000457763672
 30
0.0
 11
31.878356933594
 21
25.481567382813
 31
0.0
  0
LINE
  5
367
100
AcDbEntity
  8
0
  6
CONTINUOUS
 62
          15
100
AcDbLine
 10
28.126190185547
 20
27.456390380859
 30
0.0
 11
29.903533935547
 21
27.456390380859
 31
0.0
  0
LINE
  5
368
100
AcDbEntity
  8
0
  6
CONTINUOUS
 62
          15
100
AcDbLine
 10
28.126190185547
 20
22.025634765625
 30
0.0
 11
29.903533935547
 21
22.025634765625
 31
0.0
  0
LINE
  5
369
100
AcDbEntity
  8
0
  6
CONTINUOUS
 62
          15
100
AcDbLine
 10
31.088439941406
 20
25.679046630859
 30
0.0
 11
31.088439941406
 21
23.802978515625
 31
0.0
  0
LINE
  5
36A
100
AcDbEntity
  8
0
  6
CONTINUOUS
 62
          15
100
AcDbLine
 10
28.718658447266
 20
26.666473388672
 30
0.0
 11
28.718658447266
 21
22.815582275391
 31
0.0
  0
LINE
  5
36B
100
AcDbEntity
  8
0
  6
CONTINUOUS
 62
          15
100
AcDbLine
 10
28.126190185547
 20
27.357666015625
 30
0.0
 11
28.126190185547
 21
27.456390380859
 31
0.0
  0
LINE
  5
36C
100
AcDbEntity
  8
0
  6
CONTINUOUS
 62
          15
100
AcDbLine
 10
28.126190185547
 20
22.025634765625
 30
0.0
 11
28.126190185547
 21
22.124389648438
 31
0.0
  0
ELLIPSE
  5
36D
100
AcDbEntity
  8
0
  6
CONTINUOUS
 62
          15
100
AcDbEllipse
 10
29.903533935547
 20
25.481567382813
 30
0.0
 11
0.0000000000000001
 21
1.9748201370239256
 31
0.0
210
0.0
220
0.0
230
1.0
 40
1.0
 41
-1.5707963267948966
 42
0.0000000437113894
  0
ELLIPSE
  5
36E
100
AcDbEntity
  8
0
  6
CONTINUOUS
 62
          15
100
AcDbEllipse
 10
29.903533935547
 20
24.000457763672
 30
0.0
 11
0.0000000000000001
 21
1.9748201370239256
 31
0.0
210
0.0
220
0.0
230
1.0
 40
1.0
 41
-3.1415926973011823
 42
-1.5707963267948966
  0
ELLIPSE
  5
36F
100
AcDbEntity
  8
0
  6
CONTINUOUS
 62
          15
100
AcDbEllipse
 10
28.126190185547
 20
26.962707519531
 30
0.0
 11
0.0
 21
0.3949640393257141
 31
0.0
210
0.0
220
0.0
230
1.0
 40
1.0
 41
-1.5707963267948966
 42
0.0000000437113881
  0
ELLIPSE
  5
370
100
AcDbEntity
  8
0
  6
CONTINUOUS
 62
          15
100
AcDbEllipse
 10
28.126190185547
 20
22.519348144531
 30
0.0
 11
0.0
 21
0.3949640393257141
 31
0.0
210
0.0
220
0.0
230
1.0
 40
1.0
 41
-3.1415926973011814
 42
-1.5707963267948966
  0
LINE
  5
371
100
AcDbEntity
  8
0
  6
CONTINUOUS
 62
          15
100
AcDbLine
 10
32.470794677734
 20
22.025634765625
 30
0.0
 11
33.556945800781
 21
22.025634765625
 31
0.0
  0
LINE
  5
372
100
AcDbEntity
  8
0
  6
CONTINUOUS
 62
          15
100
AcDbLine
 10
36.420440673828
 20
27.456390380859
 30
0.0
 11
37.506591796875
 21
27.456390380859
 31
0.0
  0
LINE
  5
373
100
AcDbEntity
  8
0
  6
CONTINUOUS
 62
          15
100
AcDbLine
 10
36.420440673828
 20
27.155334472656
 30
0.0
 11
36.420440673828
 21
27.456390380859
 31
0.0
  0
LINE
  5
374
100
AcDbEntity
  8
0
  6
CONTINUOUS
 62
          15
100
AcDbLine
 10
37.506591796875
 20
27.160186767578
 30
0.0
 11
37.506591796875
 21
27.456390380859
 31
0.0
  0
LINE
  5
375
100
AcDbEntity
  8
0
  6
CONTINUOUS
 62
          15
100
AcDbLine
 10
37.506591796875
 20
22.025634765625
 30
0.0
 11
37.506591796875
 21
22.321868896484
 31
0.0
  0
LINE
  5
376
100
AcDbEntity
  8
0
  6
CONTINUOUS
 62
          15
100
AcDbLine
 10
36.124237060547
 20
22.025634765625
 30
0.0
 11
36.124237060547
 21
22.321868896484
 31
0.0
  0
LINE
  5
377
100
AcDbEntity
  8
0
  6
CONTINUOUS
 62
          15
100
AcDbLine
 10
33.556945800781
 20
22.025634765625
 30
0.0
 11
33.556945800781
 21
22.326690673828
 31
0.0
  0
LINE
  5
378
100
AcDbEntity
  8
0
  6
CONTINUOUS
 62
          15
100
AcDbLine
 10
32.470794677734
 20
27.456390380859
 30
0.0
 11
33.853179931641
 21
27.456390380859
 31
0.0
  0
LINE
  5
379
100
AcDbEntity
  8
0
  6
CONTINUOUS
 62
          15
100
AcDbLine
 10
36.124237060547
 20
22.025634765625
 30
0.0
 11
37.506591796875
 21
22.025634765625
 31
0.0
  0
LINE
  5
37A
100
AcDbEntity
  8
0
  6
CONTINUOUS
 62
          15
100
AcDbLine
 10
37.339691162109
 20
27.160186767578
 30
0.0
 11
37.506591796875
 21
27.160186767578
 31
0.0
  0
LINE
  5
37B
100
AcDbEntity
  8
0
  6
CONTINUOUS
 62
          15
100
AcDbLine
 10
32.470794677734
 20
27.160186767578
 30
0.0
 11
32.628173828125
 21
27.160186767578
 31
0.0
  0
LINE
  5
37C
100
AcDbEntity
  8
0
  6
CONTINUOUS
 62
          15
100
AcDbLine
 10
37.349212646484
 20
22.321868896484
 30
0.0
 11
37.506591796875
 21
22.321868896484
 31
0.0
  0
LINE
  5
37D
100
AcDbEntity
  8
0
  6
CONTINUOUS
 62
          15
100
AcDbLine
 10
32.470794677734
 20
22.025634765625
 30
0.0
 11
32.470794677734
 21
22.321868896484
 31
0.0
  0
ELLIPSE
  5
37E
100
AcDbEntity
  8
0
  6
CONTINUOUS
 62
          15
100
AcDbEllipse
 10
37.339691162109
 20
26.765197753906
 30
0.0
 11
0.0
 21
0.3949640393257141
 31
0.0
210
0.0
220
0.0
230
1.0
 40
1.0
 41
0.0000000437113881
 42
0.9420000751826811
  0
ELLIPSE
  5
37F
100
AcDbEntity
  8
0
  6
CONTINUOUS
 62
          15
100
AcDbEllipse
 10
37.349212646484
 20
22.716827392578
 30
0.0
 11
0.0
 21
0.3949640393257141
 31
0.0
210
0.0
220
0.0
230
1.0
 40
1.0
 41
-4.1216207305577051
 42
-3.1415926973011814
  0
ELLIPSE
  5
380
100
AcDbEntity
  8
0
  6
CONTINUOUS
 62
          15
100
AcDbEllipse
 10
32.6376953125
 20
22.716827392578
 30
0.0
 11
0.0
 21
0.3949640393257141
 31
0.0
210
0.0
220
0.0
230
1.0
 40
1.0
 41
-3.1415926973011814
 42
-2.1995926062252584
  0
ELLIPSE
  5
381
100
AcDbEntity
  8
0
  6
CONTINUOUS
 62
          15
100
AcDbEllipse
 10
36.450927734375
 20
27.061431884766
 30
0.0
 11
0.0
 21
0.0987410098314285
 31
0.0
210
0.0
220
0.0
230
1.0
 40
1.0
 41
-2.1995926062254592
 42
0.3140993555399898
  0
ELLIPSE
  5
382
100
AcDbEntity
  8
0
  6
CONTINUOUS
 62
          15
100
AcDbEllipse
 10
33.526428222656
 20
22.420593261719
 30
0.0
 11
0.0
 21
0.0987410098314285
 31
0.0
210
0.0
220
0.0
230
1.0
 40
1.0
 41
0.9420000751826811
 42
-2.8274933854726982
  0
ELLIPSE
  5
383
100
AcDbEntity
  8
0
  6
CONTINUOUS
 62
          15
100
AcDbEllipse
 10
36.163513183594
 20
22.420593261719
 30
0.0
 11
0.0
 21
0.0987410098314285
 31
0.0
210
0.0
220
0.0
230
1.0
 40
1.0
 41
-3.5509062568332359
 42
-0.9800279895453949
  0
LINE
  5
384
100
AcDbEntity
  8
0
  6
CONTINUOUS
 62
          15
100
AcDbLine
 10
32.470794677734
 20
22.321868896484
 30
0.0
 11
32.6376953125
 21
22.321868896484
 31
0.0
  0
LINE
  5
385
100
AcDbEntity
  8
0
  6
CONTINUOUS
 62
          15
100
AcDbLine
 10
38.790222167969
 20
24.346069335938
 30
0.0
 11
40.962524414063
 21
24.346069335938
 31
0.0
  0
LINE
  5
386
100
AcDbEntity
  8
0
  6
CONTINUOUS
 62
          15
100
AcDbLine
 10
38.790222167969
 20
25.135986328125
 30
0.0
 11
40.962524414063
 21
25.135986328125
 31
0.0
  0
LINE
  5
387
100
AcDbEntity
  8
0
  6
CONTINUOUS
 62
          15
100
AcDbLine
 10
43.332305908203
 20
22.618103027344
 30
0.0
 11
43.332305908203
 21
26.376495361328
 31
0.0
  0
LINE
  5
388
100
AcDbEntity
  8
0
  6
CONTINUOUS
 62
          15
100
AcDbLine
 10
44.122222900391
 20
22.618103027344
 30
0.0
 11
44.122222900391
 21
27.456390380859
 31
0.0
  0
LINE
  5
389
100
AcDbEntity
  8
0
  6
CONTINUOUS
 62
          15
100
AcDbLine
 10
43.727264404297
 20
27.456390380859
 30
0.0
 11
44.122222900391
 21
27.456390380859
 31
0.0
  0
LINE
  5
38A
100
AcDbEntity
  8
0
  6
CONTINUOUS
 62
          15
100
AcDbLine
 10
42.739868164063
 20
26.468994140625
 30
0.0
 11
42.739868164063
 21
26.666473388672
 31
0.0
  0
LINE
  5
38B
100
AcDbEntity
  8
0
  6
CONTINUOUS
 62
          15
100
AcDbLine
 10
44.517211914063
 20
22.025634765625
 30
0.0
 11
44.517211914063
 21
22.223114013672
 31
0.0
  0
LINE
  5
38C
100
AcDbEntity
  8
0
  6
CONTINUOUS
 62
          15
100
AcDbLine
 10
42.937347412109
 20
22.025634765625
 30
0.0
 11
42.937347412109
 21
22.223114013672
 31
0.0
  0
LINE
  5
38D
100
AcDbEntity
  8
0
  6
CONTINUOUS
 62
          15
100
AcDbLine
 10
42.937347412109
 20
22.025634765625
 30
0.0
 11
44.517211914063
 21
22.025634765625
 31
0.0
  0
LINE
  5
38E
100
AcDbEntity
  8
0
  6
CONTINUOUS
 62
          15
100
AcDbLine
 10
43.727264404297
 20
27.456390380859
 30
0.0
 11
42.739868164063
 21
26.666473388672
 31
0.0
  0
LINE
  5
38F
100
AcDbEntity
  8
0
  6
CONTINUOUS
 62
          15
100
AcDbLine
 10
42.739868164063
 20
26.468994140625
 30
0.0
 11
42.937347412109
 21
26.468994140625
 31
0.0
  0
ELLIPSE
  5
390
100
AcDbEntity
  8
0
  6
CONTINUOUS
 62
          15
100
AcDbEllipse
 10
42.937347412109
 20
22.618103027344
 30
0.0
 11
0.0
 21
0.3949640393257141
 31
0.0
210
0.0
220
0.0
230
1.0
 40
1.0
 41
-3.1415926973011814
 42
-1.5707963267948966
  0
ELLIPSE
  5
391
100
AcDbEntity
  8
0
  6
CONTINUOUS
 62
          15
100
AcDbEllipse
 10
44.517211914063
 20
22.618103027344
 30
0.0
 11
0.0
 21
0.3949640393257141
 31
0.0
210
0.0
220
0.0
230
1.0
 40
1.0
 41
-4.7123888293889227
 42
-3.1415926973011814
  0
LINE
  5
392
100
AcDbEntity
  8
0
  6
CONTINUOUS
 62
          15
100
AcDbLine
 10
42.937347412109
 20
26.468994140625
 30
0.0
 11
43.008392333984
 21
26.528198242188
 31
0.0
  0
ELLIPSE
  5
393
100
AcDbEntity
  8
0
  6
CONTINUOUS
 62
          15
100
AcDbEllipse
 10
43.134826660156
 20
26.376495361328
 30
0.0
 11
0.0
 21
0.1974820196628571
 31
0.0
210
0.0
220
0.0
230
1.0
 40
1.0
 41
-1.5707963267948966
 42
0.6947383125636595
  0
LINE
  5
394
100
AcDbEntity
  8
0
  6
CONTINUOUS
 62
          15
100
AcDbLine
 10
46.294525146484
 20
27.456390380859
 30
0.0
 11
48.86181640625
 21
27.456390380859
 31
0.0
  0
LINE
  5
395
100
AcDbEntity
  8
0
  6
CONTINUOUS
 62
          15
100
AcDbLine
 10
46.325714111328
 20
26.666473388672
 30
0.0
 11
48.679016113281
 21
26.666473388672
 31
0.0
  0
LINE
  5
396
100
AcDbEntity
  8
0
  6
CONTINUOUS
 62
          15
100
AcDbLine
 10
46.294525146484
 20
27.456390380859
 30
0.0
 11
45.756774902344
 21
24.901947021484
 31
0.0
  0
LINE
  5
397
100
AcDbEntity
  8
0
  6
CONTINUOUS
 62
          15
100
AcDbLine
 10
46.325714111328
 20
26.666473388672
 30
0.0
 11
46.057159423828
 21
25.390777587891
 31
0.0
  0
LINE
  5
398
100
AcDbEntity
  8
0
  6
CONTINUOUS
 62
          15
100
AcDbLine
 10
45.756072998047
 20
22.743621826172
 30
0.0
 11
45.826690673828
 21
22.847320556641
 31
0.0
  0
LINE
  5
399
100
AcDbEntity
  8
0
  6
CONTINUOUS
 62
          15
100
AcDbLine
 10
48.86181640625
 20
27.456390380859
 30
0.0
 11
48.679016113281
 21
26.666473388672
 31
0.0
  0
ELLIPSE
  5
39A
100
AcDbEntity
  8
0
  6
CONTINUOUS
 62
          15
100
AcDbEllipse
 10
47.183197021484
 20
23.802978515625
 30
0.0
 11
0.0000000000000001
 21
1.7773381471633909
 31
0.0
210
0.0
220
0.0
230
1.0
 40
1.0
 41
-4.0738361636784486
 42
0.1968212564799436
  0
ELLIPSE
  5
39B
100
AcDbEntity
  8
0
  6
CONTINUOUS
 62
          15
100
AcDbEllipse
 10
46.904235839844
 20
23.713287353516
 30
0.0
 11
0.0000000000000001
 21
1.3823740482330322
 31
0.0
210
0.0
220
0.0
230
1.0
 40
1.0
 41
-4.035434559979711
 42
0.1881961067530582
  0
LINE
  5
39C
100
AcDbEntity
  8
0
  6
CONTINUOUS
 62
          15
100
AcDbLine
 10
46.057159423828
 20
25.390777587891
 30
0.0
 11
46.835632324219
 21
25.545989990234
 31
0.0
  0
LINE
  5
39D
100
AcDbEntity
  8
0
  6
CONTINUOUS
 62
          15
100
AcDbLine
 10
45.756774902344
 20
24.901947021484
 30
0.0
 11
46.645599365234
 21
25.071228027344
 31
0.0
  0
ELLIPSE
  5
39E
100
AcDbEntity
  8
0
  6
CONTINUOUS
 62
          15
100
AcDbEllipse
 10
38.790222167969
 20
24.741027832031
 30
0.0
 11
0.0
 21
0.3949640393257141
 31
0.0
210
0.0
220
0.0
230
1.0
 40
1.0
 41
0.0000000437113881
 42
-3.1415926973011814
  0
ELLIPSE
  5
39F
100
AcDbEntity
  8
0
  6
CONTINUOUS
 62
          15
100
AcDbEllipse
 10
40.962524414063
 20
24.741027832031
 30
0.0
 11
0.0
 21
0.3949640393257141
 31
0.0
210
0.0
220
0.0
230
1.0
 40
1.0
 41
-3.1415926973011814
 42
0.0000000437113881
  0
LINE
  5
3A0
100
AcDbEntity
  8
0
  6
CONTINUOUS
 62
          15
100
AcDbLine
 10
29.311096191406
 20
27.258911132813
 30
0.0
 11
29.508575439453
 21
27.258911132813
 31
0.0
  0
LINE
  5
3A1
100
AcDbEntity
  8
0
  6
CONTINUOUS
 62
          15
100
AcDbLine
 10
29.311096191406
 20
22.223114013672
 30
0.0
 11
29.508575439453
 21
22.223114013672
 31
0.0
  0
ELLIPSE
  5
3A2
100
AcDbEntity
  8
0
  6
CONTINUOUS
 62
          15
100
AcDbEllipse
 10
29.311096191406
 20
22.815582275391
 30
0.0
 11
0.0
 21
0.5924460291862488
 31
0.0
210
0.0
220
0.0
230
1.0
 40
1.0
 41
-4.7123888293888667
 42
-3.0147530595448355
  0
ELLIPSE
  5
3A3
100
AcDbEntity
  8
0
  6
CONTINUOUS
 62
          15
100
AcDbEllipse
 10
29.311096191406
 20
26.666473388672
 30
0.0
 11
0.0
 21
0.5924460291862488
 31
0.0
210
0.0
220
0.0
230
1.0
 40
1.0
 41
0.0000000437113421
 42
-4.7123888293888667
  0
ELLIPSE
  5
3A4
100
AcDbEntity
  8
0
  6
CONTINUOUS
 62
          15
100
AcDbEllipse
 10
29.508575439453
 20
25.679046630859
 30
0.0
 11
0.0000000000000001
 21
1.5798561573028564
 31
0.0
210
0.0
220
0.0
230
1.0
 40
1.0
 41
-1.5707963267948966
 42
0.0000000437113881
  0
ELLIPSE
  5
3A5
100
AcDbEntity
  8
0
  6
CONTINUOUS
 62
          15
100
AcDbEllipse
 10
29.508575439453
 20
23.802978515625
 30
0.0
 11
0.0000000000000001
 21
1.5798561573028564
 31
0.0
210
0.0
220
0.0
230
1.0
 40
1.0
 41
-3.1415926973011814
 42
-1.5707963267948966
  0
LINE
  5
3A6
100
AcDbEntity
  8
0
  6
CONTINUOUS
 62
          15
100
AcDbLine
 10
32.470794677734
 20
27.160186767578
 30
0.0
 11
32.470794677734
 21
27.456390380859
 31
0.0
  0
LINE
  5
3A7
100
AcDbEntity
  8
0
  6
CONTINUOUS
 62
          15
100
AcDbLine
 10
33.853179931641
 20
27.160186767578
 30
0.0
 11
33.853179931641
 21
27.456390380859
 31
0.0
  0
LINE
  5
3A8
100
AcDbEntity
  8
0
  6
CONTINUOUS
 62
          15
100
AcDbLine
 10
33.813873291016
 20
27.160186767578
 30
0.0
 11
33.853179931641
 21
27.160186767578
 31
0.0
  0
ELLIPSE
  5
3A9
100
AcDbEntity
  8
0
  6
CONTINUOUS
 62
          15
100
AcDbEllipse
 10
32.628173828125
 20
26.765197753906
 30
0.0
 11
0.0
 21
0.3949640393257141
 31
0.0
210
0.0
220
0.0
230
1.0
 40
1.0
 41
-0.9800280491497728
 42
0.0000000437113881
  0
ELLIPSE
  5
3AA
100
AcDbEntity
  8
0
  6
CONTINUOUS
 62
          15
100
AcDbEllipse
 10
33.813873291016
 20
27.061431884766
 30
0.0
 11
0.0
 21
0.0987410098314285
 31
0.0
210
0.0
220
0.0
230
1.0
 40
1.0
 41
0.0000000437115319
 42
-4.1216207305576251
  0
LINE
  5
3AB
100
AcDbEntity
  8
0
  6
CONTINUOUS
 62
          15
100
AcDbLine
 10
32.956176757813
 20
26.985198974609
 30
0.0
 11
34.664794921875
 21
24.635070800781
 31
0.0
  0
LINE
  5
3AC
100
AcDbEntity
  8
0
  6
CONTINUOUS
 62
          15
100
AcDbLine
 10
34.664794921875
 20
24.635070800781
 30
0.0
 11
32.957122802734
 21
22.484527587891
 31
0.0
  0
LINE
  5
3AD
100
AcDbEntity
  8
0
  6
CONTINUOUS
 62
          15
100
AcDbLine
 10
33.446594238281
 20
22.478668212891
 30
0.0
 11
34.901641845703
 21
24.281890869141
 31
0.0
  0
LINE
  5
3AE
100
AcDbEntity
  8
0
  6
CONTINUOUS
 62
          15
100
AcDbLine
 10
34.901641845703
 20
24.281890869141
 30
0.0
 11
36.245513916016
 21
22.4755859375
 31
0.0
  0
LINE
  5
3AF
100
AcDbEntity
  8
0
  6
CONTINUOUS
 62
          15
100
AcDbLine
 10
37.021209716797
 20
22.496826171875
 30
0.0
 11
35.312591552734
 21
24.846954345703
 31
0.0
  0
LINE
  5
3B0
100
AcDbEntity
  8
0
  6
CONTINUOUS
 62
          15
100
AcDbLine
 10
35.312591552734
 20
24.846954345703
 30
0.0
 11
37.020263671875
 21
26.997497558594
 31
0.0
  0
LINE
  5
3B1
100
AcDbEntity
  8
0
  6
CONTINUOUS
 62
          15
100
AcDbLine
 10
36.530792236328
 20
27.003326416016
 30
0.0
 11
35.075744628906
 21
25.200134277344
 31
0.0
  0
LINE
  5
3B2
100
AcDbEntity
  8
0
  6
CONTINUOUS
 62
          15
100
AcDbLine
 10
35.075744628906
 20
25.200134277344
 30
0.0
 11
33.731872558594
 21
27.006408691406
 31
0.0
  0
LINE
  5
3B3
100
AcDbEntity
  8
0
  6
CONTINUOUS
 62
          15
100
AcDbLine
 10
-11.019500732422
 20
32.84326171875
 30
0.0
 11
50.160430908203
 21
32.84326171875
 31
0.0
  0
LINE
  5
3B4
100
AcDbEntity
  8
0
  6
CONTINUOUS
 62
          15
100
AcDbLine
 10
-12.994323730469
 20
34.818054199219
 30
0.0
 11
50.160430908203
 21
34.818054199219
 31
0.0
  0
LINE
  5
3B5
100
AcDbEntity
  8
0
  6
CONTINUOUS
 62
          15
100
AcDbLine
 10
-14.969146728516
 20
36.792877197266
 30
0.0
 11
50.160430908203
 21
36.792877197266
 31
0.0
  0
LINE
  5
3B6
100
AcDbEntity
  8
0
  6
CONTINUOUS
 62
          15
100
AcDbLine
 10
-16.943954467773
 20
38.767700195313
 30
0.0
 11
50.160430908203
 21
38.767700195313
 31
0.0
  0
LINE
  5
3B7
100
AcDbEntity
  8
0
  6
CONTINUOUS
 62
          15
100
AcDbLine
 10
-49.757568359375
 20
40.742523193359
 30
0.0
 11
49.757568359375
 21
40.742523193359
 31
0.0
  0
LINE
  5
3B8
100
AcDbEntity
  8
0
  6
CONTINUOUS
 62
          15
100
AcDbLine
 10
-47.558319091797
 20
42.717346191406
 30
0.0
 11
47.558319091797
 21
42.717346191406
 31
0.0
  0
LINE
  5
3B9
100
AcDbEntity
  8
0
  6
CONTINUOUS
 62
          15
100
AcDbLine
 10
-47.848358154297
 20
12.376220703125
 30
0.0
 11
47.848358154297
 21
12.376220703125
 31
0.0
  0
LINE
  5
3BA
100
AcDbEntity
  8
0
  6
CONTINUOUS
 62
          15
100
AcDbLine
 10
-49.813201904297
 20
14.351043701172
 30
0.0
 11
49.813201904297
 21
14.351043701172
 31
0.0
  0
LINE
  5
3BB
100
AcDbEntity
  8
0
  6
CONTINUOUS
 62
          15
100
AcDbLine
 10
-50.160446166992
 20
16.325866699219
 30
0.0
 11
50.160430908203
 21
16.325866699219
 31
0.0
  0
LINE
  5
3BC
100
AcDbEntity
  8
0
  6
CONTINUOUS
 62
          15
100
AcDbLine
 10
-50.160446166992
 20
18.300689697266
 30
0.0
 11
-12.994323730469
 21
18.300689697266
 31
0.0
  0
LINE
  5
3BD
100
AcDbEntity
  8
0
  6
CONTINUOUS
 62
          15
100
AcDbLine
 10
-50.160446166992
 20
20.275482177734
 30
0.0
 11
-14.969146728516
 21
20.275482177734
 31
0.0
  0
LINE
  5
3BE
100
AcDbEntity
  8
0
  6
CONTINUOUS
 62
          15
100
AcDbLine
 10
-50.160446166992
 20
22.250305175781
 30
0.0
 11
-16.943954467773
 21
22.250305175781
 31
0.0
  0
LINE
  5
3BF
100
AcDbEntity
  8
0
  6
CONTINUOUS
 62
          15
100
AcDbLine
 10
-50.160446166992
 20
24.225128173828
 30
0.0
 11
-18.91877746582
 21
24.225128173828
 31
0.0
  0
LINE
  5
3C0
100
AcDbEntity
  8
0
  6
CONTINUOUS
 62
          15
100
AcDbLine
 10
-50.04963684082
 20
84.465026855469
 30
0.0
 11
50.048492431641
 21
84.465026855469
 31
0.0
  0
LINE
  5
3C1
100
AcDbEntity
  8
0
  6
CONTINUOUS
 62
          15
100
AcDbLine
 10
-48.456741333008
 20
86.439849853516
 30
0.0
 11
48.455596923828
 21
86.439849853516
 31
0.0
  0
LINE
  5
3C2
100
AcDbEntity
  8
0
  6
CONTINUOUS
 62
          15
100
AcDbLine
 10
-50.160446166992
 20
77.553161621094
 30
0.0
 11
50.159301757813
 21
77.553161621094
 31
0.0
  0
LINE
  5
3C3
100
AcDbEntity
  8
0
  6
CONTINUOUS
 62
          15
100
AcDbLine
 10
-46.367202758789
 20
45.455993652344
 30
0.0
 11
-46.367202758789
 21
75.70947265625
 31
0.0
  0
LINE
  5
3C4
100
AcDbEntity
  8
0
  6
CONTINUOUS
 62
          15
100
AcDbLine
 10
-37.125045776367
 20
45.455993652344
 30
0.0
 11
-37.125045776367
 21
75.70947265625
 31
0.0
  0
LINE
  5
3C5
100
AcDbEntity
  8
0
  6
CONTINUOUS
 62
          15
100
AcDbLine
 10
-46.367202758789
 20
45.455993652344
 30
0.0
 11
-37.125045776367
 21
45.455993652344
 31
0.0
  0
LINE
  5
3C6
100
AcDbEntity
  8
0
  6
CONTINUOUS
 62
          15
100
AcDbLine
 10
-46.367202758789
 20
75.70947265625
 30
0.0
 11
-37.125045776367
 21
75.70947265625
 31
0.0
  0
LINE
  5
3C7
100
AcDbEntity
  8
0
  6
CONTINUOUS
 62
          15
100
AcDbLine
 10
-29.814270019531
 20
45.455993652344
 30
0.0
 11
-29.814270019531
 21
75.70947265625
 31
0.0
  0
LINE
  5
3C8
100
AcDbEntity
  8
0
  6
CONTINUOUS
 62
          15
100
AcDbLine
 10
-20.57209777832
 20
45.455993652344
 30
0.0
 11
-20.57209777832
 21
75.70947265625
 31
0.0
  0
LINE
  5
3C9
100
AcDbEntity
  8
0
  6
CONTINUOUS
 62
          15
100
AcDbLine
 10
-29.814270019531
 20
45.455993652344
 30
0.0
 11
-20.57209777832
 21
45.455993652344
 31
0.0
  0
LINE
  5
3CA
100
AcDbEntity
  8
0
  6
CONTINUOUS
 62
          15
100
AcDbLine
 10
-29.814270019531
 20
75.70947265625
 30
0.0
 11
-20.57209777832
 21
75.70947265625
 31
0.0
  0
LINE
  5
3CB
100
AcDbEntity
  8
0
  6
CONTINUOUS
 62
          15
100
AcDbLine
 10
-14.264526367188
 20
45.455993652344
 30
0.0
 11
-14.264526367188
 21
75.70947265625
 31
0.0
  0
LINE
  5
3CC
100
AcDbEntity
  8
0
  6
CONTINUOUS
 62
          15
100
AcDbLine
 10
-5.022369384766
 20
45.455993652344
 30
0.0
 11
-5.022369384766
 21
75.70947265625
 31
0.0
  0
LINE
  5
3CD
100
AcDbEntity
  8
0
  6
CONTINUOUS
 62
          15
100
AcDbLine
 10
-14.264526367188
 20
45.455993652344
 30
0.0
 11
-5.022369384766
 21
45.455993652344
 31
0.0
  0
LINE
  5
3CE
100
AcDbEntity
  8
0
  6
CONTINUOUS
 62
          15
100
AcDbLine
 10
-14.264526367188
 20
75.70947265625
 30
0.0
 11
-5.022369384766
 21
75.70947265625
 31
0.0
  0
LINE
  5
3CF
100
AcDbEntity
  8
0
  6
CONTINUOUS
 62
          15
100
AcDbLine
 10
2.221282958984
 20
45.455993652344
 30
0.0
 11
2.221282958984
 21
75.70947265625
 31
0.0
  0
LINE
  5
3D0
100
AcDbEntity
  8
0
  6
CONTINUOUS
 62
          15
100
AcDbLine
 10
11.463439941406
 20
45.455993652344
 30
0.0
 11
11.463439941406
 21
75.70947265625
 31
0.0
  0
LINE
  5
3D1
100
AcDbEntity
  8
0
  6
CONTINUOUS
 62
          15
100
AcDbLine
 10
2.221282958984
 20
45.455993652344
 30
0.0
 11
11.463439941406
 21
45.455993652344
 31
0.0
  0
LINE
  5
3D2
100
AcDbEntity
  8
0
  6
CONTINUOUS
 62
          15
100
AcDbLine
 10
2.221282958984
 20
75.70947265625
 30
0.0
 11
11.463439941406
 21
75.70947265625
 31
0.0
  0
LINE
  5
3D3
100
AcDbEntity
  8
0
  6
CONTINUOUS
 62
          15
100
AcDbLine
 10
18.774230957031
 20
45.455993652344
 30
0.0
 11
18.774230957031
 21
75.70947265625
 31
0.0
  0
LINE
  5
3D4
100
AcDbEntity
  8
0
  6
CONTINUOUS
 62
          15
100
AcDbLine
 10
28.016387939453
 20
45.455993652344
 30
0.0
 11
28.016387939453
 21
75.70947265625
 31
0.0
  0
LINE
  5
3D5
100
AcDbEntity
  8
0
  6
CONTINUOUS
 62
          15
100
AcDbLine
 10
18.774230957031
 20
45.455993652344
 30
0.0
 11
28.016387939453
 21
45.455993652344
 31
0.0
  0
LINE
  5
3D6
100
AcDbEntity
  8
0
  6
CONTINUOUS
 62
          15
100
AcDbLine
 10
18.774230957031
 20
75.70947265625
 30
0.0
 11
28.016387939453
 21
75.70947265625
 31
0.0
  0
LINE
  5
3D7
100
AcDbEntity
  8
0
  6
CONTINUOUS
 62
          15
100
AcDbLine
 10
35.963073730469
 20
45.455993652344
 30
0.0
 11
35.963073730469
 21
75.70947265625
 31
0.0
  0
LINE
  5
3D8
100
AcDbEntity
  8
0
  6
CONTINUOUS
 62
          15
100
AcDbLine
 10
45.205200195313
 20
45.455993652344
 30
0.0
 11
45.205200195313
 21
75.70947265625
 31
0.0
  0
LINE
  5
3D9
100
AcDbEntity
  8
0
  6
CONTINUOUS
 62
          15
100
AcDbLine
 10
35.963073730469
 20
45.455993652344
 30
0.0
 11
45.205200195313
 21
45.455993652344
 31
0.0
  0
LINE
  5
3DA
100
AcDbEntity
  8
0
  6
CONTINUOUS
 62
          15
100
AcDbLine
 10
35.963073730469
 20
75.70947265625
 30
0.0
 11
45.205200195313
 21
75.70947265625
 31
0.0
  0
LINE
  5
3DB
100
AcDbEntity
  8
0
  6
CONTINUOUS
 62
          15
100
AcDbLine
 10
-54.900009155273
 20
8.0
 30
0.0
 11
54.899993896484
 21
8.0
 31
0.0
  0
LINE
  5
3DC
100
AcDbEntity
  8
0
  6
CONTINUOUS
 62
          15
100
AcDbLine
 10
-54.900009155273
 20
8.0
 30
0.0
 11
-54.900009155273
 21
88.971099853516
 31
0.0
  0
LINE
  5
3DD
100
AcDbEntity
  8
0
  6
CONTINUOUS
 62
          15
100
AcDbLine
 10
54.899993896484
 20
8.0
 30
0.0
 11
54.899993896484
 21
88.971099853516
 31
0.0
  0
LINE
  5
3DE
100
AcDbEntity
  8
0
  6
CONTINUOUS
 62
          15
100
AcDbLine
 10
-62.900009155273
 20
99.400024414063
 30
0.0
 11
-55.828948974609
 21
106.471069335938
 31
0.0
  0
LINE
  5
3DF
100
AcDbEntity
  8
0
  6
CONTINUOUS
 62
          15
100
AcDbLine
 10
62.900024414063
 20
99.400024414063
 30
0.0
 11
69.971099853516
 21
106.471069335938
 31
0.0
  0
LINE
  5
3E0
100
AcDbEntity
  8
0
  6
CONTINUOUS
 62
          15
100
AcDbLine
 10
62.900024414063
 20
0.0
 30
0.0
 11
69.971099853516
 21
7.071075439453
 31
0.0
  0
LINE
  5
3E1
100
AcDbEntity
  8
0
  6
CONTINUOUS
 62
          15
100
AcDbLine
 10
69.971099853516
 20
7.071075439453
 30
0.0
 11
69.971099853516
 21
106.471069335938
 31
0.0
  0
LINE
  5
3E2
100
AcDbEntity
  8
0
  6
CONTINUOUS
 62
          15
100
AcDbLine
 10
-55.82893371582
 20
106.471069335938
 30
0.0
 11
69.971099853516
 21
106.471069335938
 31
0.0
  0
ENDBLK
  5
3E3
100
AcDbEntity
  8
0
  6
BYBLOCK
 62
           0
100
AcDbBlockEnd
  0
ENDSEC
  0
SECTION
  2
ENTITIES
  0
INSERT
  5
27
100
AcDbEntity
  8
0
  6
CONTINUOUS
 62
           7
100
AcDbBlockReference
  2
SUPPLY_1
 10
66.655570983887
 20
80.592742919922
 30
0.0
  0
INSERT
  5
28
100
AcDbEntity
  8
0
  6
CONTINUOUS
 62
           7
100
AcDbBlockReference
  2
SDXPSA_2
 10
56.871795654297
 20
116.202087402344
 30
0.0
  0
INSERT
  5
29
100
AcDbEntity
  8
0
  6
CONTINUOUS
 62
           7
100
AcDbBlockReference
  2
SDXPIC1_3
 10
61.894167358906
 20
105.254669189453
 30
0.0
 41
0.5
 42
0.5
 43
0.5
  0
INSERT
  5
2A
100
AcDbEntity
  8
0
  6
CONTINUOUS
 62
           7
100
AcDbBlockReference
  2
SUPPLY_4
 10
197.433072925297
 20
80.03357694246
 30
0.0
  0
INSERT
  5
2B
100
AcDbEntity
  8
0
  6
CONTINUOUS
 62
           7
100
AcDbBlockReference
  2
SDXPSA_5
 10
187.649297595707
 20
115.642921424882
 30
0.0
  0
INSERT
  5
2C
100
AcDbEntity
  8
0
  6
CONTINUOUS
 62
           7
100
AcDbBlockReference
  2
SDXPIC1_6
 10
164.915007155695
 20
105.254669189453
 30
0.0
 41
0.5
 42
0.5
 43
0.5
  0
LINE
  5
2D
100
AcDbEntity
  8
0
  6
CONTINUOUS
 62
          15
100
AcDbLine
 10
54.76448059082
 20
73.743705749512
 30
0.0
 11
54.76448059082
 21
81.643653869629
 31
0.0
  0
LINE
  5
2E
100
AcDbEntity
  8
0
  6
CONTINUOUS
 62
          15
100
AcDbLine
 10
54.76448059082
 20
57.964942932129
 30
0.0
 11
54.76448059082
 21
73.743705749512
 31
0.0
  0
LINE
  5
2F
100
AcDbEntity
  8
0
  6
CONTINUOUS
 62
          15
100
AcDbLine
 10
49.808700561523
 20
73.743705749512
 30
0.0
 11
49.808700561523
 21
81.642944335938
 31
0.0
  0
LINE
  5
30
100
AcDbEntity
  8
0
  6
CONTINUOUS
 62
          15
100
AcDbLine
 10
49.808700561523
 20
60.383186340332
 30
0.0
 11
49.808700561523
 21
73.743705749512
 31
0.0
  0
LINE
  5
31
100
AcDbEntity
  8
0
  6
CONTINUOUS
 62
          15
100
AcDbLine
 10
59.952568054199
 20
67.71125793457
 30
0.0
 11
63.08553314209
 21
67.71125793457
 31
0.0
  0
LINE
  5
32
100
AcDbEntity
  8
0
  6
CONTINUOUS
 62
          15
100
AcDbLine
 10
60.420707702637
 20
67.099327087402
 30
0.0
 11
62.50936126709
 21
67.099327087402
 31
0.0
  0
LINE
  5
33
100
AcDbEntity
  8
0
  6
CONTINUOUS
 62
          15
100
AcDbLine
 10
60.888862609863
 20
66.487396240234
 30
0.0
 11
61.933174133301
 21
66.487396240234
 31
0.0
  0
LINE
  5
34
100
AcDbEntity
  8
0
  6
CONTINUOUS
 62
          15
100
AcDbLine
 10
61.357002258301
 20
70.343399047852
 30
0.0
 11
61.357002258301
 21
67.71125793457
 31
0.0
  0
LINE
  5
35
100
AcDbEntity
  8
0
  6
CONTINUOUS
 62
          15
100
AcDbLine
 10
59.322532653809
 20
70.325454711914
 30
0.0
 11
61.357002258301
 21
70.325454711914
 31
0.0
  0
LINE
  5
36
100
AcDbEntity
  8
0
  6
CONTINUOUS
 62
          15
100
AcDbLine
 10
59.322532653809
 20
28.872997380779
 30
0.0
 11
59.322532653809
 21
70.325454711914
 31
0.0
  0
LINE
  5
37
100
AcDbEntity
  8
0
  6
CONTINUOUS
 62
          15
100
AcDbLine
 10
66.648406982422
 20
83.947334289551
 30
0.0
 11
66.648406982422
 21
86.608367919922
 31
0.0
  0
LINE
  5
38
100
AcDbEntity
  8
0
  6
CONTINUOUS
 62
          15
100
AcDbLine
 10
52.719764709473
 20
60.383186340332
 30
0.0
 11
180.586202502934
 21
60.383186340332
 31
0.0
  0
LINE
  5
39
100
AcDbEntity
  8
0
  6
CONTINUOUS
 62
          15
100
AcDbLine
 10
28.786833061773
 20
60.383186340332
 30
0.0
 11
49.808700561523
 21
60.383186340332
 31
0.0
  0
LINE
  5
3A
100
AcDbEntity
  8
0
  6
CONTINUOUS
 62
          15
100
AcDbLine
 10
57.847755432129
 20
57.964942932129
 30
0.0
 11
185.541982532231
 21
57.964942932129
 31
0.0
  0
LINE
  5
3B
100
AcDbEntity
  8
0
  6
CONTINUOUS
 62
          15
100
AcDbLine
 10
28.786833061773
 20
57.964942932129
 30
0.0
 11
54.76448059082
 21
57.964942932129
 31
0.0
  0
LINE
  5
3C
100
AcDbEntity
  8
0
  6
CONTINUOUS
 62
          15
100
AcDbLine
 10
28.786833061773
 20
55.162490844727
 30
0.0
 11
190.100034595219
 21
55.162490844727
 31
0.0
  0
LINE
  5
3D
100
AcDbEntity
  8
0
  6
CONTINUOUS
 62
          15
100
AcDbLine
 10
34.710872650146
 20
73.743705749512
 30
0.0
 11
34.710872650146
 21
81.642944335938
 31
0.0
  0
LINE
  5
3E
100
AcDbEntity
  8
0
  6
CONTINUOUS
 62
          15
100
AcDbLine
 10
39.86799621582
 20
73.743705749512
 30
0.0
 11
39.86799621582
 21
81.642944335938
 31
0.0
  0
LINE
  5
3F
100
AcDbEntity
  8
0
  6
CONTINUOUS
 62
          15
100
AcDbLine
 10
37.18745803833
 20
73.743705749512
 30
0.0
 11
37.18745803833
 21
81.642944335938
 31
0.0
  0
TEXT
  5
40
100
AcDbEntity
  8
0
  6
CONTINUOUS
 62
          15
100
AcDbText
 10
63.268869998104
 20
51.567918668842
 30
0.0
 40
2.0
  1
SCREEN
 41
1.15000000596
  7
GOTHICG
100
AcDbText
  0
LINE
  5
41
100
AcDbEntity
  8
0
  6
CONTINUOUS
 62
          15
100
AcDbLine
 10
185.541982532231
 20
73.18453977205
 30
0.0
 11
185.541982532231
 21
81.084487892167
 31
0.0
  0
LINE
  5
42
100
AcDbEntity
  8
0
  6
CONTINUOUS
 62
          15
100
AcDbLine
 10
185.541982532231
 20
57.964942932129
 30
0.0
 11
185.541982532231
 21
73.18453977205
 31
0.0
  0
LINE
  5
43
100
AcDbEntity
  8
0
  6
CONTINUOUS
 62
          15
100
AcDbLine
 10
180.586202502934
 20
73.18453977205
 30
0.0
 11
180.586202502934
 21
81.083778358476
 31
0.0
  0
LINE
  5
44
100
AcDbEntity
  8
0
  6
CONTINUOUS
 62
          15
100
AcDbLine
 10
180.586202502934
 20
60.383186340332
 30
0.0
 11
180.586202502934
 21
73.18453977205
 31
0.0
  0
LINE
  5
45
100
AcDbEntity
  8
0
  6
CONTINUOUS
 62
          15
100
AcDbLine
 10
190.73006999561
 20
67.152091957109
 30
0.0
 11
193.8630350835
 21
67.152091957109
 31
0.0
  0
LINE
  5
46
100
AcDbEntity
  8
0
  6
CONTINUOUS
 62
          15
100
AcDbLine
 10
191.198209644047
 20
66.540161109941
 30
0.0
 11
193.2868632085
 21
66.540161109941
 31
0.0
  0
LINE
  5
47
100
AcDbEntity
  8
0
  6
CONTINUOUS
 62
          15
100
AcDbLine
 10
191.666364551274
 20
65.928230262773
 30
0.0
 11
192.710676074711
 21
65.928230262773
 31
0.0
  0
LINE
  5
48
100
AcDbEntity
  8
0
  6
CONTINUOUS
 62
          15
100
AcDbLine
 10
192.134504199711
 20
69.78423307039
 30
0.0
 11
192.134504199711
 21
67.152091957109
 31
0.0
  0
LINE
  5
49
100
AcDbEntity
  8
0
  6
CONTINUOUS
 62
          15
100
AcDbLine
 10
190.100034595219
 20
69.766288734452
 30
0.0
 11
192.134504199711
 21
69.766288734452
 31
0.0
  0
LINE
  5
4A
100
AcDbEntity
  8
0
  6
CONTINUOUS
 62
          15
100
AcDbLine
 10
190.100034595219
 20
55.162490844727
 30
0.0
 11
190.100034595219
 21
69.766288734452
 31
0.0
  0
LINE
  5
4B
100
AcDbEntity
  8
0
  6
CONTINUOUS
 62
          15
100
AcDbLine
 10
197.425908923832
 20
83.388168312089
 30
0.0
 11
197.425908923832
 21
86.04920194246
 31
0.0
  0
LINE
  5
4C
100
AcDbEntity
  8
0
  6
CONTINUOUS
 62
          15
100
AcDbLine
 10
165.488374591557
 20
73.18453977205
 30
0.0
 11
165.488374591557
 21
81.083778358476
 31
0.0
  0
LINE
  5
4D
100
AcDbEntity
  8
0
  6
CONTINUOUS
 62
          15
100
AcDbLine
 10
167.96495997974
 20
73.18453977205
 30
0.0
 11
167.96495997974
 21
81.083778358476
 31
0.0
  0
LINE
  5
4E
100
AcDbEntity
  8
0
  6
CONTINUOUS
 62
          15
100
AcDbLine
 10
170.645498157231
 20
73.18453977205
 30
0.0
 11
170.645498157231
 21
81.083778358476
 31
0.0
  0
TEXT
  5
4F
100
AcDbEntity
  8
0
  6
CONTINUOUS
 62
          15
100
AcDbText
 10
230.661850119774
 20
69.442269472516
 30
0.0
 40
2.0
  1
SIGNALS TO OTHER
 41
1.15000000596
  7
GOTHICG
100
AcDbText
  0
TEXT
  5
50
100
AcDbEntity
  8
0
  6
CONTINUOUS
 62
          15
100
AcDbText
 10
230.661850119774
 20
66.242269472516
 30
0.0
 40
2.0
  1
SDX-15 EQUIPMENT
 41
1.15000000596
  7
GOTHICG
100
AcDbText
  0
TEXT
  5
51
100
AcDbEntity
  8
0
  6
CONTINUOUS
 62
          15
100
AcDbText
 10
236.411850149576
 20
63.042269472516
 30
0.0
 40
2.0
  1
AS REQUIRED
 41
1.15000000596
  7
GOTHICG
100
AcDbText
  0
CIRCLE
  5
52
100
AcDbEntity
  8
0
  6
CONTINUOUS
 62
          15
100
AcDbCircle
 10
145.925573867121
 20
119.758255004883
 30
0.0
 40
1.0
  0
CIRCLE
  5
53
100
AcDbEntity
  8
0
  6
CONTINUOUS
 62
          15
100
AcDbCircle
 10
145.925573867121
 20
123.474731445313
 30
0.0
 40
1.0
  0
TEXT
  5
54
100
AcDbEntity
  8
0
  6
CONTINUOUS
 62
          15
100
AcDbText
 10
147.828344863215
 20
122.840213030577
 30
0.0
 40
1.5
  1
TEST
  7
ROMAND
100
AcDbText
  0
TEXT
  5
55
100
AcDbEntity
  8
0
  6
CONTINUOUS
 62
          15
100
AcDbText
 10
147.964254897394
 20
119.078417986631
 30
0.0
 40
1.5
  1
MUTE
  7
ROMAND
100
AcDbText
  0
LINE
  5
56
100
AcDbEntity
  8
0
  6
CONTINUOUS
 62
          15
100
AcDbLine
 10
156.320079542878
 20
117.409889796149
 30
0.0
 11
175.516125026191
 21
98.205843812495
 31
0.0
  0
TEXT
  5
57
100
AcDbEntity
  8
0
  6
CONTINUOUS
 62
          15
100
AcDbText
 10
81.918877418271
 20
171.198710955797
 30
0.0
 40
3.0
  1
CAENTRAL OR REPEATER
 41
1.166666666667
  7
GOTHICG
100
AcDbText
  0
TEXT
  5
58
100
AcDbEntity
  8
0
  6
CONTINUOUS
 62
          15
100
AcDbText
 10
94.168877418271
 20
166.398710955797
 30
0.0
 40
3.0
  1
 ALARM PANELS
 41
1.166666666667
  7
GOTHICG
100
AcDbText
  0
TEXT
  5
59
100
AcDbEntity
  8
0
  6
CONTINUOUS
 62
          15
100
AcDbText
 10
103.837444758245
 20
177.623948919301
 30
0.0
 40
4.0
  1
SDX-15
 41
1.125
  7
ROMAND
100
AcDbText
  0
CIRCLE
  5
5A
100
AcDbEntity
  8
0
  6
CONTINUOUS
 62
          15
100
AcDbCircle
 10
43.116330329281
 20
119.758255004883
 30
0.0
 40
1.0
  0
CIRCLE
  5
5B
100
AcDbEntity
  8
0
  6
CONTINUOUS
 62
          15
100
AcDbCircle
 10
43.116330329281
 20
123.474731445313
 30
0.0
 40
1.0
  0
TEXT
  5
5C
100
AcDbEntity
  8
0
  6
CONTINUOUS
 62
          15
100
AcDbText
 10
45.019101325374
 20
122.840213030577
 30
0.0
 40
1.5
  1
TEST
  7
ROMAND
100
AcDbText
  0
TEXT
  5
5D
100
AcDbEntity
  8
0
  6
CONTINUOUS
 62
          15
100
AcDbText
 10
45.155011359554
 20
119.078417986631
 30
0.0
 40
1.5
  1
MUTE
  7
ROMAND
100
AcDbText
  0
LINE
  5
5E
100
AcDbEntity
  8
0
  6
CONTINUOUS
 62
          15
100
AcDbLine
 10
51.374168395996
 20
73.744415283203
 30
0.0
 11
51.374168395996
 21
81.643653869629
 31
0.0
  0
LINE
  5
5F
100
AcDbEntity
  8
0
  6
CONTINUOUS
 62
          15
100
AcDbLine
 10
51.374168395996
 20
28.872997380779
 30
0.0
 11
51.374168395996
 21
73.744415283203
 31
0.0
  0
LINE
  5
60
100
AcDbEntity
  8
0
  6
CONTINUOUS
 62
          15
100
AcDbLine
 10
52.719764709473
 20
73.744415283203
 30
0.0
 11
52.719764709473
 21
81.643653869629
 31
0.0
  0
LINE
  5
61
100
AcDbEntity
  8
0
  6
CONTINUOUS
 62
          15
100
AcDbLine
 10
52.719764709473
 20
60.383186340332
 30
0.0
 11
52.719764709473
 21
73.744415283203
 31
0.0
  0
LINE
  5
62
100
AcDbEntity
  8
0
  6
CONTINUOUS
 62
          15
100
AcDbLine
 10
56.502159118652
 20
73.744415283203
 30
0.0
 11
56.502159118652
 21
81.643653869629
 31
0.0
  0
LINE
  5
63
100
AcDbEntity
  8
0
  6
CONTINUOUS
 62
          15
100
AcDbLine
 10
56.502159118652
 20
28.872997380779
 30
0.0
 11
56.502159118652
 21
73.744415283203
 31
0.0
  0
LINE
  5
64
100
AcDbEntity
  8
0
  6
CONTINUOUS
 62
          15
100
AcDbLine
 10
57.847755432129
 20
73.744415283203
 30
0.0
 11
57.847755432129
 21
81.643653869629
 31
0.0
  0
LINE
  5
65
100
AcDbEntity
  8
0
  6
CONTINUOUS
 62
          15
100
AcDbLine
 10
57.847755432129
 20
57.964942932129
 30
0.0
 11
57.847755432129
 21
73.744415283203
 31
0.0
  0
TEXT
  5
66
100
AcDbEntity
  8
0
  6
CONTINUOUS
 62
          15
100
AcDbText
 10
10.89391475359
 20
51.829324238622
 30
0.0
 40
2.0
  1
SIGNALS TO
 41
1.15000000596
  7
GOTHICG
100
AcDbText
  0
TEXT
  5
67
100
AcDbEntity
  8
0
  6
CONTINUOUS
 62
          15
100
AcDbText
 10
5.143914723787
 20
48.629324238622
 30
0.0
 40
2.0
  1
EXISTING SYSTEM
 41
1.15000000596
  7
GOTHICG
100
AcDbText
  0
TEXT
  5
68
100
AcDbEntity
  8
0
  6
CONTINUOUS
 62
          15
100
AcDbText
 10
41.971545396468
 20
25.208647358999
 30
0.0
 40
2.0
  1
SIGNALS FROM
 41
1.15000000596
  7
GOTHICG
100
AcDbText
  0
TEXT
  5
69
100
AcDbEntity
  8
0
  6
CONTINUOUS
 62
          15
100
AcDbText
 10
35.071545360705
 20
22.008647358999
 30
0.0
 40
2.0
  1
REMOTE TRANSMITTER
 41
1.15000000596
  7
GOTHICG
100
AcDbText
  0
ENDSEC
  0
SECTION
  2
OBJECTS
  0
DICTIONARY
  5
19
100
AcDbDictionary
  3
ACAD_GROUP
350
1A
  3
ACAD_MLINESTYLE
350
1B
  0
DICTIONARY
  5
1A
102
{ACAD_REACTORS
330
19
102
}
100
AcDbDictionary
  0
DICTIONARY
  5
1B
102
{ACAD_REACTORS
330
19
102
}
100
AcDbDictionary
  3
STANDARD
350
1C
  0
MLINESTYLE
  5
1C
102
{ACAD_REACTORS
330
1B
102
}
100
AcDbMlineStyle
  2
STANDARD
 70
           0
  3

 62
           0
 51
90.0
 52
90.0
 71
           2
 49
0.5
 62
         256
  6
BYLAYER
 49
-0.5
 62
         256
  6
BYLAYER
  0
ENDSEC
  0
EOF
